  0
SECTION
  2
HEADER
  9
$ACADVER
  1
AC1015
  9
$ACADMAINTVER
 70
     6
  9
$DWGCODEPAGE
  3
DOS932
  9
$INSBASE
 10
0.0
 20
0.0
 30
0.0
  9
$EXTMIN
 10
0.0
 20
0.0
 30
0.0
  9
$EXTMAX
 10
420.0
 20
297.0
 30
0.0
  9
$LIMMIN
 10
0.0
 20
0.0
  9
$LIMMAX
 10
420.0
 20
297.0
  9
$ORTHOMODE
 70
     0
  9
$REGENMODE
 70
     1
  9
$FILLMODE
 70
     1
  9
$QTEXTMODE
 70
     0
  9
$MIRRTEXT
 70
     1
  9
$LTSCALE
 40
0.25
  9
$ATTMODE
 70
     1
  9
$TEXTSIZE
 40
5.0
  9
$TRACEWID
 40
0.05
  9
$TEXTSTYLE
  7
Standard
  9
$CLAYER
  8
0
  9
$CELTYPE
  6
Continuous
  9
$CECOLOR
 62
   256
  9
$CELTSCALE
 40
1.0
  9
$DISPSILH
 70
     0
  9
$DIMSCALE
 40
1.0
  9
$DIMASZ
 40
4.0
  9
$DIMEXO
 40
2.0
  9
$DIMDLI
 40
10.0
  9
$DIMRND
 40
0.0
  9
$DIMDLE
 40
0.0
  9
$DIMEXE
 40
2.0
  9
$DIMTP
 40
0.0
  9
$DIMTM
 40
0.0
  9
$DIMTXT
 40
4.0
  9
$DIMCEN
 40
0.09
  9
$DIMTSZ
 40
0.0
  9
$DIMTOL
 70
     0
  9
$DIMLIM
 70
     0
  9
$DIMTIH
 70
     0
  9
$DIMTOH
 70
     0
  9
$DIMSE1
 70
     0
  9
$DIMSE2
 70
     0
  9
$DIMTAD
 70
     3
  9
$DIMZIN
 70
     0
  9
$DIMBLK
  1

  9
$DIMASO
 70
     1
  9
$DIMSHO
 70
     1
  9
$DIMPOST
  1

  9
$DIMAPOST
  1

  9
$DIMALT
 70
     0
  9
$DIMALTD
 70
     2
  9
$DIMALTF
 40
25.4
  9
$DIMLFAC
 40
1.0
  9
$DIMTOFL
 70
     1
  9
$DIMTVP
 40
0.7
  9
$DIMTIX
 70
     0
  9
$DIMSOXD
 70
     0
  9
$DIMSAH
 70
     0
  9
$DIMBLK1
  1

  9
$DIMBLK2
  1

  9
$DIMSTYLE
  2
Standard
  9
$DIMCLRD
 70
     0
  9
$DIMCLRE
 70
     0
  9
$DIMCLRT
 70
     0
  9
$DIMTFAC
 40
0.5
  9
$DIMGAP
 40
0.0
  9
$DIMJUST
 70
     0
  9
$DIMSD1
 70
     0
  9
$DIMSD2
 70
     0
  9
$DIMTOLJ
 70
     1
  9
$DIMTZIN
 70
     0
  9
$DIMALTZ
 70
     0
  9
$DIMALTTZ
 70
     0
  9
$DIMUPT
 70
     0
  9
$DIMDEC
 70
     2
  9
$DIMTDEC
 70
     4
  9
$DIMALTU
 70
     2
  9
$DIMALTTD
 70
     2
  9
$DIMTXSTY
  7
Standard
  9
$DIMAUNIT
 70
     0
  9
$DIMADEC
 70
     0
  9
$DIMALTRND
 40
0.0
  9
$DIMAZIN
 70
     0
  9
$DIMDSEP
 70
     0
  9
$DIMATFIT
 70
     3
  9
$DIMFRAC
 70
     0
  9
$DIMLDRBLK
  1

  9
$DIMLUNIT
 70
     2
  9
$DIMLWD
 70
     0
  9
$DIMLWE
 70
     0
  9
$DIMTMOVE
 70
     0
  9
$LUNITS
 70
     2
  9
$LUPREC
 70
     4
  9
$SKETCHINC
 40
0.1
  9
$FILLETRAD
 40
0.0
  9
$AUNITS
 70
     0
  9
$AUPREC
 70
     0
  9
$MENU
  1
acad
  9
$ELEVATION
 40
0.0
  9
$PELEVATION
 40
0.0
  9
$THICKNESS
 40
0.0
  9
$LIMCHECK
 70
     0
  9
$CHAMFERA
 40
0.0
  9
$CHAMFERB
 40
0.0
  9
$CHAMFERC
 40
0.0
  9
$CHAMFERD
 40
0.0
  9
$SKPOLY
 70
     0
  9
$TDCREATE
 40
2454397.706469907
  9
$TDUCREATE
 40
0.000000000
  9
$TDUPDATE
 40
2454397.706469907
  9
$TDUUPDATE
 40
0.000000000
  9
$TDINDWG
 40
0.0000000000
  9
$TDUSRTIMER
 40
0.0000000000
  9
$USRTIMER
 70
     1
  9
$ANGBASE
 50
0.0
  9
$ANGDIR
 70
     0
  9
$PDMODE
 70
     0
  9
$PDSIZE
 40
0.0
  9
$PLINEWID
 40
0.0
  9
$SPLFRAME
 70
     0
  9
$SPLINETYPE
 70
     6
  9
$SPLINESEGS
 70
     8
  9
$HANDSEED
  5
38A
  9
$SURFTAB1
 70
     6
  9
$SURFTAB2
 70
     6
  9
$SURFTYPE
 70
     6
  9
$SURFU
 70
     6
  9
$SURFV
 70
     6
  9
$UCSBASE
  2

  9
$UCSNAME
  2

  9
$UCSORG
 10
0.0
 20
0.0
 30
0.0
  9
$UCSXDIR
 10
1.0
 20
0.0
 30
0.0
  9
$UCSYDIR
 10
0.0
 20
1.0
 30
0.0
  9
$UCSORTHOREF
  2

  9
$UCSORTHOVIEW
 70
     0
  9
$UCSORGTOP
 10
0.0
 20
0.0
 30
0.0
  9
$UCSORGBOTTOM
 10
0.0
 20
0.0
 30
0.0
  9
$UCSORGLEFT
 10
0.0
 20
0.0
 30
0.0
  9
$UCSORGRIGHT
 10
0.0
 20
0.0
 30
0.0
  9
$UCSORGFRONT
 10
0.0
 20
0.0
 30
0.0
  9
$UCSORGBACK
 10
0.0
 20
0.0
 30
0.0
  9
$PUCSBASE
  2

  9
$PUCSNAME
  2

  9
$PUCSORG
 10
0.0
 20
0.0
 30
0.0
  9
$PUCSXDIR
 10
1.0
 20
0.0
 30
0.0
  9
$PUCSYDIR
 10
0.0
 20
1.0
 30
0.0
  9
$PUCSORTHOREF
  2

  9
$PUCSORTHOVIEW
 70
     0
  9
$PUCSORGTOP
 10
0.0
 20
0.0
 30
0.0
  9
$PUCSORGBOTTOM
 10
0.0
 20
0.0
 30
0.0
  9
$PUCSORGLEFT
 10
0.0
 20
0.0
 30
0.0
  9
$PUCSORGRIGHT
 10
0.0
 20
0.0
 30
0.0
  9
$PUCSORGFRONT
 10
0.0
 20
0.0
 30
0.0
  9
$PUCSORGBACK
 10
0.0
 20
0.0
 30
0.0
  9
$USERI1
 70
     0
  9
$USERI2
 70
     0
  9
$USERI3
 70
     0
  9
$USERI4
 70
     0
  9
$USERI5
 70
     0
  9
$USERR1
 40
0.0
  9
$USERR2
 40
0.0
  9
$USERR3
 40
0.0
  9
$USERR4
 40
0.0
  9
$USERR5
 40
0.0
  9
$WORLDVIEW
 70
     1
  9
$SHADEDGE
 70
     3
  9
$SHADEDIF
 70
    70
  9
$TILEMODE
 70
     1
  9
$MAXACTVP
 70
    16
  9
$PINSBASE
 10
0.0
 20
0.0
 30
0.0
  9
$PLIMCHECK
 70
     0
  9
$PEXTMIN
 10
0.0
 20
0.0
 30
0.0
  9
$PEXTMAX
 10
420.0
 20
297.0
 30
0.0
  9
$PLIMMIN
 10
0.0
 20
0.0
  9
$PLIMMAX
 10
420.0
 20
297.0
  9
$UNITMODE
 70
     0
  9
$VISRETAIN
 70
     0
  9
$PLINEGEN
 70
     1
  9
$PSLTSCALE
 70
     0
  9
$TREEDEPTH
 70
  3020
  9
$CMLSTYLE
  2
Standard
  9
$CMLJUST
 70
     0
  9
$CMLSCALE
 40
1.0
  9
$PROXYGRAPHICS
 70
     0
  9
$MEASUREMENT
 70
     0
  9
$CELWEIGHT
370
     0
  9
$ENDCAPS
280
     0
  9
$JOINSTYLE
280
     0
  9
$LWDISPLAY
290
     0
  9
$INSUNITS
 70
     0
  9
$HYPERLINKBASE
  1

  9
$STYLESHEET
  1

  9
$XEDIT
290
     1
  9
$CEPSNTYPE
380
     0
  9
$PSTYLEMODE
290
     1
  9
$FINGERPRINTGUID
  2

  9
$VERSIONGUID
  2

  9
$EXTNAMES
290
     1
  9
$PSVPSCALE
 40
0.0
  0
ENDSEC
  0
SECTION
  2
CLASSES
  0
CLASS
  1
LWPOLYLINE
  2
AcDbPolyline
  3
AutoCAD 2000
 90
    32768
280
     0
281
     1
  0
CLASS
  1
IMAGE
  2
AcDbRasterImage
  3
ISM
 90
    32895
280
     0
281
     1
  0
CLASS
  1
OLE2FRAME
  2
AcDbOle2Frame
  3
AutoCAD 2000
 90
    32768
280
     0
281
     1
  0
CLASS
  1
HATCH
  2
AcDbHatch
  3
AutoCAD 2000
 90
    32768
280
     0
281
     1
  0
CLASS
  1
DICTIONARYVAR
  2
AcDbDictionaryVar
  3
AutoCAD 2000
 90
    32768
280
     0
281
     0
  0
CLASS
  1
RASTERVARIABLES
  2
AcDbRasterVariables
  3
ISM
 90
    32768
280
     0
281
     0
  0
CLASS
  1
IMAGEDEF
  2
AcDbRasterImageDef
  3
ISM
 90
    32768
280
     0
281
     0
  0
CLASS
  1
IMAGEDEF_REACTOR
  2
AcDbRasterImageDefReactor
  3
ISM
 90
    32769
280
     0
281
     0
  0
CLASS
  1
IDBUFFER
  2
AcDbIdBuffer
  3
AutoCAD 2000
 90
    32768
280
     0
281
     0
  0
CLASS
  1
SPATIAL_FILTER
  2
AcDbSpatialFilter
  3
AutoCAD 2000
 90
    32768
280
     0
281
     0
  0
CLASS
  1
XRECORD
  2
AcDbXrecord
  3
AutoCAD 2000
 90
    32768
280
     0
281
     0
  0
CLASS
  1
SORTENTSTABLE
  2
AcDbSortentsTable
  3
AutoCAD 2000
 90
    32768
280
     0
281
     0
  0
CLASS
  1
LAYER_INDEX
  2
AcDbLayerIndex
  3
AutoCAD 2000
 90
    32768
280
     0
281
     0
  0
CLASS
  1
SPATIAL_INDEX
  2
AcDbSpatialIndex
  3
AutoCAD 2000
 90
    32768
280
     0
281
     0
  0
CLASS
  1
OBJECT_PTR
  2
CAseDLPNTableRecord
  3
"ASE-LPNTableRecord"
 90
    32769
280
     0
281
     0
  0
CLASS
  1
LAYOUT
  2
AcDbLayout
  3
AutoCAD 2000
 90
        0
280
     0
281
     0
  0
CLASS
  1
PLOTSETTINGS
  2
AcDbPlotSettings
  3
AutoCAD 2000
 90
    32768
280
     0
281
     0
  0
CLASS
  1
ACDBDICTIONARYWDFLT
  2
AcDbDictionaryWithDefault
  3
AutoCAD 2000
 90
        0
280
     0
281
     0
  0
CLASS
  1
ACDBPLACEHOLDER
  2
AcDbPlaceHolder
  3
AutoCAD 2000
 90
        0
280
     0
281
     0
  0
CLASS
  1
VBA_PROJECT
  2
AcDbVbaProject
  3
acadvba
 90
    32768
280
     0
281
     0
  0
CLASS
  1
WIPEOUT
  2
AcDbWipeout
  3
WipeOut|AutoCAD Express Tool|expresstools@autodesk.com
 90
    32895
280
     0
281
     1
  0
CLASS
  1
WIPEOUTVARIABLES
  2
AcDbWipeoutVariables
  3
WipeOut|AutoCAD Express Tool|expresstools@autodesk.com
 90
        0
280
     0
281
     0
  0
CLASS
  1
RTEXT
  2
RText
  3
RText|AutoCAD Express Tool|expresstools@autodesk.com
 90
    32768
280
     0
281
     1
  0
CLASS
  1
ARCALIGNEDTEXT
  2
AcDbArcAlignedText
  3
ATEXT|AutoCAD Express Tool|expresstools@autodesk.com
 90
    32768
280
     0
281
     1
  0
ENDSEC
  0
SECTION
  2
TABLES
  0
TABLE
  2
VPORT
  5
7
100
AcDbSymbolTable
 70
     1
  0
VPORT
  5
15
100
AcDbSymbolTableRecord
100
AcDbViewportTableRecord
  2
*ACTIVE
 70
     0
 10
0.0
 20
0.0
 11
1.0
 21
1.0
 12
6.591288
 22
4.579184
 13
0.0
 23
0.0
 14
1.0
 24
1.0
 15
0.0
 25
0.0
 16
0.0
 26
0.0
 36
1.0
 17
0.0
 27
0.0
 37
0.0
 40
9.158369
 41
0.688564
 42
50.0
 43
0.0
 44
0.0
 50
0.0
 51
0.0
 71
     0
 72
   100
 73
     1
 74
     1
 75
     0
 76
     0
 77
     0
 78
     0
281
     0
 65
     0
110
0.0
120
0.0
130
0.0
111
1.0
121
0.0
131
0.0
112
0.0
122
1.0
132
0.0
345
0
346
0
 79
     0
146
0.0
  0
ENDTAB
  0
TABLE
  2
LTYPE
  5
4
100
AcDbSymbolTable
 70
     9
  0
LTYPE
  5
11
100
AcDbSymbolTableRecord
100
AcDbLinetypeTableRecord
  2
ByBlock
 70
    64
  3

 72
    65
 73
     0
 40
0.0
  0
LTYPE
  5
12
100
AcDbSymbolTableRecord
100
AcDbLinetypeTableRecord
  2
ByLayer
 70
    64
  3

 72
    65
 73
     0
 40
0.0
  0
LTYPE
  5
13
100
AcDbSymbolTableRecord
100
AcDbLinetypeTableRecord
  2
Continuous
 70
    64
  3
Solid line
 72
    65
 73
     0
 40
0.0
  0
LTYPE
  5
25
100
AcDbSymbolTableRecord
100
AcDbLinetypeTableRecord
  2
HIDDEN
 70
    64
  3
- - - - - - - - 
 72
    65
 73
     2
 40
12.6
 49
8.4
 74
     0
 49
-4.2
 74
     0
  0
LTYPE
  5
26
100
AcDbSymbolTableRecord
100
AcDbLinetypeTableRecord
  2
DOT
 70
    64
  3
･ ･ ･ ･ ･ ･ ･ ･ 
 72
    65
 73
     2
 40
8.0
 49
6.0
 74
     0
 49
-2.0
 74
     0
  0
LTYPE
  5
27
100
AcDbSymbolTableRecord
100
AcDbLinetypeTableRecord
  2
CENTER
 70
    64
  3
- ･ - ･ - ･ - ･ 
 72
    65
 73
     4
 40
50.5
 49
30.0
 74
     0
 49
-9.0
 74
     0
 49
2.5
 74
     0
 49
-9.0
 74
     0
  0
LTYPE
  5
28
100
AcDbSymbolTableRecord
100
AcDbLinetypeTableRecord
  2
PHANTOM
 70
    64
  3
- ･･ - ･･ - ･･ - ･･ 
 72
    65
 73
     6
 40
58.0
 49
30.0
 74
     0
 49
-9.0
 74
     0
 49
2.5
 74
     0
 49
-5.0
 74
     0
 49
2.5
 74
     0
 49
-9.0
 74
     0
  0
LTYPE
  5
29
100
AcDbSymbolTableRecord
100
AcDbLinetypeTableRecord
  2
ACAD_ISO06W100
 70
    64
  3
____ ... ____ ... ____
 72
    65
 73
     8
 40
37.5
 49
24.0
 74
     0
 49
-3.0
 74
     0
 49
0.5
 74
     0
 49
-3.0
 74
     0
 49
0.5
 74
     0
 49
-3.0
 74
     0
 49
0.5
 74
     0
 49
-3.0
 74
     0
  0
LTYPE
  5
2A
100
AcDbSymbolTableRecord
100
AcDbLinetypeTableRecord
  2
ACAD_ISO14W100
 70
    64
  3
__ . . . __ . . . __ . . . 
 72
    65
 73
     8
 40
25.5
 49
12.0
 74
     0
 49
-3.0
 74
     0
 49
0.5
 74
     0
 49
-3.0
 74
     0
 49
0.5
 74
     0
 49
-3.0
 74
     0
 49
0.5
 74
     0
 49
-3.0
 74
     0
  0
ENDTAB
  0
TABLE
  2
LAYER
  5
2
100
AcDbSymbolTable
 70
    23
  0
LAYER
  5
14
100
AcDbSymbolTableRecord
100
AcDbLayerTableRecord
  2
0
 70
     0
 62
     7
  6
Continuous
290
     1
370
    -3
390
1D
  0
LAYER
  5
2B
100
AcDbSymbolTableRecord
100
AcDbLayerTableRecord
  2
1
 70
     0
 62
     7
  6
Continuous
290
     1
370
    -3
390
1D
  0
LAYER
  5
2C
100
AcDbSymbolTableRecord
100
AcDbLayerTableRecord
  2
2
 70
     0
 62
     5
  6
Continuous
290
     1
370
    -3
390
1D
  0
LAYER
  5
2D
100
AcDbSymbolTableRecord
100
AcDbLayerTableRecord
  2
3
 70
     0
 62
   114
  6
Continuous
290
     1
370
    -3
390
1D
  0
LAYER
  5
2E
100
AcDbSymbolTableRecord
100
AcDbLayerTableRecord
  2
4
 70
     0
 62
    54
  6
Continuous
290
     1
370
    -3
390
1D
  0
LAYER
  5
2F
100
AcDbSymbolTableRecord
100
AcDbLayerTableRecord
  2
5
 70
     0
 62
    94
  6
Continuous
290
     1
370
    -3
390
1D
  0
LAYER
  5
30
100
AcDbSymbolTableRecord
100
AcDbLayerTableRecord
  2
6
 70
     0
 62
    14
  6
Continuous
290
     1
370
    -3
390
1D
  0
LAYER
  5
31
100
AcDbSymbolTableRecord
100
AcDbLayerTableRecord
  2
7
 70
     0
 62
     4
  6
Continuous
290
     1
370
    -3
390
1D
  0
LAYER
  5
32
100
AcDbSymbolTableRecord
100
AcDbLayerTableRecord
  2
8
 70
     0
 62
     6
  6
Continuous
290
     1
370
    -3
390
1D
  0
LAYER
  5
33
100
AcDbSymbolTableRecord
100
AcDbLayerTableRecord
  2
9
 70
     0
 62
     2
  6
Continuous
290
     1
370
    -3
390
1D
  0
LAYER
  5
34
100
AcDbSymbolTableRecord
100
AcDbLayerTableRecord
  2
10
 70
     0
 62
     3
  6
Continuous
290
     1
370
    -3
390
1D
  0
LAYER
  5
35
100
AcDbSymbolTableRecord
100
AcDbLayerTableRecord
  2
11
 70
     0
 62
   251
  6
Continuous
290
     1
370
    -3
390
1D
  0
LAYER
  5
36
100
AcDbSymbolTableRecord
100
AcDbLayerTableRecord
  2
12
 70
     0
 62
   136
  6
Continuous
290
     1
370
    -3
390
1D
  0
LAYER
  5
37
100
AcDbSymbolTableRecord
100
AcDbLayerTableRecord
  2
13
 70
     0
 62
   216
  6
Continuous
290
     1
370
    -3
390
1D
  0
LAYER
  5
38
100
AcDbSymbolTableRecord
100
AcDbLayerTableRecord
  2
14
 70
     0
 62
    56
  6
Continuous
290
     1
370
    -3
390
1D
  0
LAYER
  5
39
100
AcDbSymbolTableRecord
100
AcDbLayerTableRecord
  2
15
 70
     0
 62
    96
  6
Continuous
290
     1
370
    -3
390
1D
  0
LAYER
  5
3A
100
AcDbSymbolTableRecord
100
AcDbLayerTableRecord
  2
16
 70
     0
 62
    16
  6
Continuous
290
     1
370
    -3
390
1D
  0
LAYER
  5
3B
100
AcDbSymbolTableRecord
100
AcDbLayerTableRecord
  2
17
 70
     0
 62
   132
  6
Continuous
290
     1
370
    -3
390
1D
  0
LAYER
  5
3C
100
AcDbSymbolTableRecord
100
AcDbLayerTableRecord
  2
18
 70
     0
 62
   212
  6
Continuous
290
     1
370
    -3
390
1D
  0
LAYER
  5
3D
100
AcDbSymbolTableRecord
100
AcDbLayerTableRecord
  2
19
 70
     0
 62
    52
  6
Continuous
290
     1
370
    -3
390
1D
  0
LAYER
  5
3E
100
AcDbSymbolTableRecord
100
AcDbLayerTableRecord
  2
20
 70
     0
 62
   250
  6
Continuous
290
     1
370
    -3
390
1D
  0
LAYER
  5
3F
100
AcDbSymbolTableRecord
100
AcDbLayerTableRecord
  2
21
 70
     0
 62
     7
  6
Continuous
290
     1
370
    -3
390
1D
  0
LAYER
  5
40
100
AcDbSymbolTableRecord
100
AcDbLayerTableRecord
  2
22
 70
     0
 62
     7
  6
Continuous
290
     1
370
    -3
390
1D
  0
ENDTAB
  0
TABLE
  2
STYLE
  5
3
100
AcDbSymbolTable
 70
     2
  0
STYLE
  5
17
100
AcDbSymbolTableRecord
100
AcDbTextStyleTableRecord
  2
Standard
 70
     0
 40
0.0
 41
1.0
 50
0.0
 71
     0
 42
0.0
  3
txt
  4
bigfont
  0
STYLE
  5
24
100
AcDbSymbolTableRecord
100
AcDbTextStyleTableRecord
  2
T_STANDARD
 70
    68
 40
10.0
 41
1.0
 50
0.0
 71
     0
 42
10.0
  3
txt
  4
bigfont
  0
ENDTAB
  0
TABLE
  2
VIEW
  5
5
100
AcDbSymbolTable
 70
     0
  0
ENDTAB
  0
TABLE
  2
UCS
  5
6
100
AcDbSymbolTable
 70
     0
  0
ENDTAB
  0
TABLE
  2
APPID
  5
8
100
AcDbSymbolTable
 70
     1
  0
APPID
  5
16
100
AcDbSymbolTableRecord
100
AcDbRegAppTableRecord
  2
ACAD
 70
     0
  0
ENDTAB
  0
TABLE
  2
DIMSTYLE
  5
9
100
AcDbSymbolTable
 70
     1
100
AcDbDimStyleTable
 71
     0
  0
DIMSTYLE
105
18
100
AcDbSymbolTableRecord
100
AcDbDimStyleTableRecord
  2
Standard
 70
     0
  3

  4

 40
1.0
 41
0.18
 42
0.0625
 43
0.38
 44
0.18
 45
0.0
 46
0.0
 47
0.0
 48
0.0
 71
     0
 72
     0
 73
     1
 74
     1
 75
     0
 76
     0
 77
     0
 78
     0
 79
     0
140
0.18
141
0.09
142
0.0
143
25.4
144
1.0
145
0.0
146
1.0
147
0.09
148
0.0
170
     0
171
     2
172
     0
173
     0
174
     0
175
     0
176
     0
177
     0
178
     0
179
     0
271
     4
272
     4
273
     2
274
     2
275
     0
276
     0
277
     2
278
    46
279
     0
280
     0
281
     0
282
     0
283
     1
284
     0
285
     0
286
     0
288
     0
340
17
341
0
342
0
343
0
344
0
371
    -2
372
    -2
  0
ENDTAB
  0
TABLE
  2
BLOCK_RECORD
  5
1
100
AcDbSymbolTable
 70
     8
  0
BLOCK_RECORD
  5
A
100
AcDbSymbolTableRecord
100
AcDbBlockTableRecord
  2
*MODEL_SPACE
340
20
  0
BLOCK_RECORD
  5
B
100
AcDbSymbolTableRecord
100
AcDbBlockTableRecord
  2
*PAPER_SPACE
340
21
  0
BLOCK_RECORD
  5
41
100
AcDbSymbolTableRecord
100
AcDbBlockTableRecord
  2
*G0
340
0
102
{BLKREFS
331
44
102
}
  0
BLOCK_RECORD
  5
4D
100
AcDbSymbolTableRecord
100
AcDbBlockTableRecord
  2
*G1
340
0
102
{BLKREFS
331
58
102
}
  0
BLOCK_RECORD
  5
70
100
AcDbSymbolTableRecord
100
AcDbBlockTableRecord
  2
*G2
340
0
102
{BLKREFS
331
7B
102
}
  0
BLOCK_RECORD
  5
E5
100
AcDbSymbolTableRecord
100
AcDbBlockTableRecord
  2
*G3
340
0
102
{BLKREFS
331
F0
102
}
  0
BLOCK_RECORD
  5
105
100
AcDbSymbolTableRecord
100
AcDbBlockTableRecord
  2
*G4
340
0
102
{BLKREFS
331
110
102
}
  0
BLOCK_RECORD
  5
111
100
AcDbSymbolTableRecord
100
AcDbBlockTableRecord
  2
*G5
340
0
102
{BLKREFS
331
11C
102
}
  0
BLOCK_RECORD
  5
11E
100
AcDbSymbolTableRecord
100
AcDbBlockTableRecord
  2
*G6
340
0
102
{BLKREFS
331
129
102
}
  0
BLOCK_RECORD
  5
37C
100
AcDbSymbolTableRecord
100
AcDbBlockTableRecord
  2
*G7
340
0
102
{BLKREFS
331
387
102
}
  0
ENDTAB
  0
ENDSEC
  0
SECTION
  2
BLOCKS
  0
BLOCK
  5
D
100
AcDbEntity
  8
0
100
AcDbBlockBegin
  2
*MODEL_SPACE
 70
     0
 10
0.0
 20
0.0
 30
0.0
  3
*MODEL_SPACE
  1

  0
ENDBLK
  5
E
100
AcDbEntity
  8
0
100
AcDbBlockEnd
  0
BLOCK
  5
F
100
AcDbEntity
 67
     1
  8
0
100
AcDbBlockBegin
  2
*PAPER_SPACE
 70
     0
 10
0.0
 20
0.0
 30
0.0
  3
*PAPER_SPACE
  1

  0
ENDBLK
  5
10
100
AcDbEntity
 67
     1
  8
0
100
AcDbBlockEnd
  0
BLOCK
  5
42
100
AcDbEntity
  8
0
  6
Continuous
 62
     7
100
AcDbBlockBegin
  2
*G0
 70
     0
 10
0.0
 20
0.0
 30
0.0
  3
*G0
  1

  0
ENDBLK
  5
43
100
AcDbEntity
  8
0
100
AcDbBlockEnd
  0
BLOCK
  5
4E
100
AcDbEntity
  8
3
370
     9
  6
Continuous
 62
   114
100
AcDbBlockBegin
  2
*G1
 70
     0
 10
0.0
 20
0.0
 30
0.0
  3
*G1
  1

  0
LINE
  5
4F
100
AcDbEntity
  8
1
370
     9
  6
Continuous
 62
     7
100
AcDbLine
 10
29.999999
 20
135.0
 30
0.0
 11
29.999999
 21
244.599999
 31
0.0
  0
LINE
  5
50
100
AcDbEntity
  8
1
370
     9
  6
Continuous
 62
     7
100
AcDbLine
 10
28.999999
 20
135.0
 30
0.0
 11
49.499999
 21
135.0
 31
0.0
  0
LINE
  5
51
100
AcDbEntity
  8
1
370
     9
  6
Continuous
 62
     7
100
AcDbLine
 10
28.999999
 20
244.599999
 30
0.0
 11
80.600001
 21
244.599999
 31
0.0
  0
LINE
  5
52
100
AcDbEntity
  8
1
370
     9
  6
Continuous
 62
     7
100
AcDbLine
 10
29.999999
 20
135.0
 30
0.0
 11
29.482361
 21
136.931852
 31
0.0
  0
LINE
  5
53
100
AcDbEntity
  8
1
370
     9
  6
Continuous
 62
     7
100
AcDbLine
 10
29.999999
 20
135.0
 30
0.0
 11
30.517637
 21
136.931852
 31
0.0
  0
LINE
  5
54
100
AcDbEntity
  8
1
370
     9
  6
Continuous
 62
     7
100
AcDbLine
 10
29.999999
 20
244.599999
 30
0.0
 11
30.517637
 21
242.668148
 31
0.0
  0
LINE
  5
55
100
AcDbEntity
  8
1
370
     9
  6
Continuous
 62
     7
100
AcDbLine
 10
29.999999
 20
244.599999
 30
0.0
 11
29.482361
 21
242.668148
 31
0.0
  0
TEXT
  5
56
100
AcDbEntity
  8
1
370
     9
  6
Continuous
 62
     7
100
AcDbText
 10
29.999999
 20
184.8
 30
0.0
 40
4.0
  1
(110)
 50
90.0
 41
0.5
 11
29.999999
 21
184.8
 31
0.0
100
AcDbText
 73
     1
  0
ENDBLK
  5
57
100
AcDbEntity
  8
0
100
AcDbBlockEnd
  0
BLOCK
  5
71
100
AcDbEntity
  8
3
370
     9
  6
Continuous
 62
   114
100
AcDbBlockBegin
  2
*G2
 70
     0
 10
0.0
 20
0.0
 30
0.0
  3
*G2
  1

  0
LINE
  5
72
100
AcDbEntity
  8
1
370
     9
  6
Continuous
 62
     7
100
AcDbLine
 10
29.999999
 20
92.000001
 30
0.0
 11
29.999999
 21
135.0
 31
0.0
  0
LINE
  5
73
100
AcDbEntity
  8
1
370
     9
  6
Continuous
 62
     7
100
AcDbLine
 10
28.999999
 20
92.000001
 30
0.0
 11
124.5
 21
92.000001
 31
0.0
  0
LINE
  5
74
100
AcDbEntity
  8
1
370
     9
  6
Continuous
 62
     7
100
AcDbLine
 10
28.999999
 20
135.0
 30
0.0
 11
49.499999
 21
135.0
 31
0.0
  0
LINE
  5
75
100
AcDbEntity
  8
1
370
     9
  6
Continuous
 62
     7
100
AcDbLine
 10
29.999999
 20
92.000001
 30
0.0
 11
29.482361
 21
93.931853
 31
0.0
  0
LINE
  5
76
100
AcDbEntity
  8
1
370
     9
  6
Continuous
 62
     7
100
AcDbLine
 10
29.999999
 20
92.000001
 30
0.0
 11
30.517637
 21
93.931853
 31
0.0
  0
LINE
  5
77
100
AcDbEntity
  8
1
370
     9
  6
Continuous
 62
     7
100
AcDbLine
 10
29.999999
 20
135.0
 30
0.0
 11
30.517637
 21
133.068148
 31
0.0
  0
LINE
  5
78
100
AcDbEntity
  8
1
370
     9
  6
Continuous
 62
     7
100
AcDbLine
 10
29.999999
 20
135.0
 30
0.0
 11
29.482361
 21
133.068148
 31
0.0
  0
TEXT
  5
79
100
AcDbEntity
  8
1
370
     9
  6
Continuous
 62
     7
100
AcDbText
 10
29.999999
 20
111.700001
 30
0.0
 40
4.0
  1
43
 50
90.0
 41
0.5
 11
29.999999
 21
111.700001
 31
0.0
100
AcDbText
 73
     1
  0
ENDBLK
  5
7A
100
AcDbEntity
  8
0
100
AcDbBlockEnd
  0
BLOCK
  5
E6
100
AcDbEntity
  8
3
370
     9
  6
Continuous
 62
   114
100
AcDbBlockBegin
  2
*G3
 70
     0
 10
0.0
 20
0.0
 30
0.0
  3
*G3
  1

  0
LINE
  5
E7
100
AcDbEntity
  8
1
370
     9
  6
Continuous
 62
     7
100
AcDbLine
 10
115.0
 20
269.6
 30
0.0
 11
224.999998
 21
269.6
 31
0.0
  0
LINE
  5
E8
100
AcDbEntity
  8
1
370
     9
  6
Continuous
 62
     7
100
AcDbLine
 10
115.0
 20
270.6
 30
0.0
 11
115.0
 21
265.1
 31
0.0
  0
LINE
  5
E9
100
AcDbEntity
  8
1
370
     9
  6
Continuous
 62
     7
100
AcDbLine
 10
224.999998
 20
270.6
 30
0.0
 11
224.999998
 21
222.499998
 31
0.0
  0
LINE
  5
EA
100
AcDbEntity
  8
1
370
     9
  6
Continuous
 62
     7
100
AcDbLine
 10
115.0
 20
269.6
 30
0.0
 11
116.931852
 21
270.117638
 31
0.0
  0
LINE
  5
EB
100
AcDbEntity
  8
1
370
     9
  6
Continuous
 62
     7
100
AcDbLine
 10
115.0
 20
269.6
 30
0.0
 11
116.931852
 21
269.082361
 31
0.0
  0
LINE
  5
EC
100
AcDbEntity
  8
1
370
     9
  6
Continuous
 62
     7
100
AcDbLine
 10
224.999998
 20
269.6
 30
0.0
 11
223.068147
 21
269.082361
 31
0.0
  0
LINE
  5
ED
100
AcDbEntity
  8
1
370
     9
  6
Continuous
 62
     7
100
AcDbLine
 10
224.999998
 20
269.6
 30
0.0
 11
223.068147
 21
270.117638
 31
0.0
  0
TEXT
  5
EE
100
AcDbEntity
  8
1
370
     9
  6
Continuous
 62
     7
100
AcDbText
 10
164.999999
 20
269.6
 30
0.0
 40
4.0
  1
(110)
 41
0.5
 11
164.999999
 21
269.6
 31
0.0
100
AcDbText
 73
     1
  0
ENDBLK
  5
EF
100
AcDbEntity
  8
0
100
AcDbBlockEnd
  0
BLOCK
  5
106
100
AcDbEntity
  8
3
370
     9
  6
Continuous
 62
   114
100
AcDbBlockBegin
  2
*G4
 70
     0
 10
0.0
 20
0.0
 30
0.0
  3
*G4
  1

  0
LINE
  5
107
100
AcDbEntity
  8
1
370
     9
  6
Continuous
 62
     7
100
AcDbLine
 10
129.000001
 20
77.400001
 30
0.0
 11
144.0
 21
77.400001
 31
0.0
  0
LINE
  5
108
100
AcDbEntity
  8
1
370
     9
  6
Continuous
 62
     7
100
AcDbLine
 10
129.000001
 20
76.400001
 30
0.0
 11
129.000001
 21
86.900002
 31
0.0
  0
LINE
  5
109
100
AcDbEntity
  8
1
370
     9
  6
Continuous
 62
     7
100
AcDbLine
 10
144.0
 20
76.400001
 30
0.0
 11
144.0
 21
128.5
 31
0.0
  0
LINE
  5
10A
100
AcDbEntity
  8
1
370
     9
  6
Continuous
 62
     7
100
AcDbLine
 10
129.000001
 20
77.400001
 30
0.0
 11
130.931853
 21
77.917639
 31
0.0
  0
LINE
  5
10B
100
AcDbEntity
  8
1
370
     9
  6
Continuous
 62
     7
100
AcDbLine
 10
129.000001
 20
77.400001
 30
0.0
 11
130.931853
 21
76.882363
 31
0.0
  0
LINE
  5
10C
100
AcDbEntity
  8
1
370
     9
  6
Continuous
 62
     7
100
AcDbLine
 10
144.0
 20
77.400001
 30
0.0
 11
142.068148
 21
76.882363
 31
0.0
  0
LINE
  5
10D
100
AcDbEntity
  8
1
370
     9
  6
Continuous
 62
     7
100
AcDbLine
 10
144.0
 20
77.400001
 30
0.0
 11
142.068148
 21
77.917639
 31
0.0
  0
TEXT
  5
10E
100
AcDbEntity
  8
1
370
     9
  6
Continuous
 62
     7
100
AcDbText
 10
134.500001
 20
77.400001
 30
0.0
 40
4.0
  1
15
 41
0.5
 11
134.500001
 21
77.400001
 31
0.0
100
AcDbText
 73
     1
  0
ENDBLK
  5
10F
100
AcDbEntity
  8
0
100
AcDbBlockEnd
  0
BLOCK
  5
112
100
AcDbEntity
  8
3
370
     9
  6
Continuous
 62
   114
100
AcDbBlockBegin
  2
*G5
 70
     0
 10
0.0
 20
0.0
 30
0.0
  3
*G5
  1

  0
LINE
  5
113
100
AcDbEntity
  8
1
370
     9
  6
Continuous
 62
     7
100
AcDbLine
 10
54.999999
 20
77.400001
 30
0.0
 11
129.000001
 21
77.400001
 31
0.0
  0
LINE
  5
114
100
AcDbEntity
  8
1
370
     9
  6
Continuous
 62
     7
100
AcDbLine
 10
54.999999
 20
76.400001
 30
0.0
 11
54.999999
 21
128.999999
 31
0.0
  0
LINE
  5
115
100
AcDbEntity
  8
1
370
     9
  6
Continuous
 62
     7
100
AcDbLine
 10
129.000001
 20
76.400001
 30
0.0
 11
129.000001
 21
86.900002
 31
0.0
  0
LINE
  5
116
100
AcDbEntity
  8
1
370
     9
  6
Continuous
 62
     7
100
AcDbLine
 10
54.999999
 20
77.400001
 30
0.0
 11
56.931851
 21
77.917639
 31
0.0
  0
LINE
  5
117
100
AcDbEntity
  8
1
370
     9
  6
Continuous
 62
     7
100
AcDbLine
 10
54.999999
 20
77.400001
 30
0.0
 11
56.931851
 21
76.882363
 31
0.0
  0
LINE
  5
118
100
AcDbEntity
  8
1
370
     9
  6
Continuous
 62
     7
100
AcDbLine
 10
129.000001
 20
77.400001
 30
0.0
 11
127.068149
 21
76.882363
 31
0.0
  0
LINE
  5
119
100
AcDbEntity
  8
1
370
     9
  6
Continuous
 62
     7
100
AcDbLine
 10
129.000001
 20
77.400001
 30
0.0
 11
127.068149
 21
77.917639
 31
0.0
  0
TEXT
  5
11A
100
AcDbEntity
  8
1
370
     9
  6
Continuous
 62
     7
100
AcDbText
 10
90.0
 20
77.400001
 30
0.0
 40
4.0
  1
74
 41
0.5
 11
90.0
 21
77.400001
 31
0.0
100
AcDbText
 73
     1
  0
ENDBLK
  5
11B
100
AcDbEntity
  8
0
100
AcDbBlockEnd
  0
BLOCK
  5
11F
100
AcDbEntity
  8
3
370
     9
  6
Continuous
 62
   114
100
AcDbBlockBegin
  2
*G6
 70
     0
 10
0.0
 20
0.0
 30
0.0
  3
*G6
  1

  0
LINE
  5
120
100
AcDbEntity
  8
1
370
     9
  6
Continuous
 62
     7
100
AcDbLine
 10
158.499999
 20
118.000001
 30
0.0
 11
170.5
 21
118.000001
 31
0.0
  0
LINE
  5
121
100
AcDbEntity
  8
1
370
     9
  6
Continuous
 62
     7
100
AcDbLine
 10
158.499999
 20
117.000001
 30
0.0
 11
158.499999
 21
129.182615
 31
0.0
  0
LINE
  5
122
100
AcDbEntity
  8
1
370
     9
  6
Continuous
 62
     7
100
AcDbLine
 10
170.5
 20
117.000001
 30
0.0
 11
170.5
 21
129.343411
 31
0.0
  0
LINE
  5
123
100
AcDbEntity
  8
1
370
     9
  6
Continuous
 62
     7
100
AcDbLine
 10
158.499999
 20
118.000001
 30
0.0
 11
160.431851
 21
118.517639
 31
0.0
  0
LINE
  5
124
100
AcDbEntity
  8
1
370
     9
  6
Continuous
 62
     7
100
AcDbLine
 10
158.499999
 20
118.000001
 30
0.0
 11
160.431851
 21
117.482363
 31
0.0
  0
LINE
  5
125
100
AcDbEntity
  8
1
370
     9
  6
Continuous
 62
     7
100
AcDbLine
 10
170.5
 20
118.000001
 30
0.0
 11
168.568148
 21
117.482363
 31
0.0
  0
LINE
  5
126
100
AcDbEntity
  8
1
370
     9
  6
Continuous
 62
     7
100
AcDbLine
 10
170.5
 20
118.000001
 30
0.0
 11
168.568148
 21
118.517639
 31
0.0
  0
TEXT
  5
127
100
AcDbEntity
  8
1
370
     9
  6
Continuous
 62
     7
100
AcDbText
 10
162.4
 20
119.000001
 30
0.0
 40
4.0
  1
12
 41
0.5
 11
162.4
 21
119.000001
 31
0.0
100
AcDbText
 73
     1
  0
ENDBLK
  5
128
100
AcDbEntity
  8
0
100
AcDbBlockEnd
  0
BLOCK
  5
37D
100
AcDbEntity
  8
3
370
     9
  6
Continuous
 62
   114
100
AcDbBlockBegin
  2
*G7
 70
     0
 10
0.0
 20
0.0
 30
0.0
  3
*G7
  1

  0
LINE
  5
37E
100
AcDbEntity
  8
1
370
     9
  6
Continuous
 62
     7
100
AcDbLine
 10
77.5
 20
259.6
 30
0.0
 11
152.500001
 21
259.6
 31
0.0
  0
LINE
  5
37F
100
AcDbEntity
  8
1
370
     9
  6
Continuous
 62
     7
100
AcDbLine
 10
77.5
 20
260.6
 30
0.0
 11
77.5
 21
241.5
 31
0.0
  0
LINE
  5
380
100
AcDbEntity
  8
1
370
     9
  6
Continuous
 62
     7
100
AcDbLine
 10
152.500001
 20
260.6
 30
0.0
 11
152.500001
 21
241.5
 31
0.0
  0
LINE
  5
381
100
AcDbEntity
  8
1
370
     9
  6
Continuous
 62
     7
100
AcDbLine
 10
77.5
 20
259.6
 30
0.0
 11
79.431851
 21
260.117638
 31
0.0
  0
LINE
  5
382
100
AcDbEntity
  8
1
370
     9
  6
Continuous
 62
     7
100
AcDbLine
 10
77.5
 20
259.6
 30
0.0
 11
79.431851
 21
259.082362
 31
0.0
  0
LINE
  5
383
100
AcDbEntity
  8
1
370
     9
  6
Continuous
 62
     7
100
AcDbLine
 10
152.500001
 20
259.6
 30
0.0
 11
150.568149
 21
259.082362
 31
0.0
  0
LINE
  5
384
100
AcDbEntity
  8
1
370
     9
  6
Continuous
 62
     7
100
AcDbLine
 10
152.500001
 20
259.6
 30
0.0
 11
150.568149
 21
260.117638
 31
0.0
  0
TEXT
  5
385
100
AcDbEntity
  8
1
370
     9
  6
Continuous
 62
     7
100
AcDbText
 10
111.0
 20
259.6
 30
0.0
 40
4.0
  1
%%c75
 41
0.666667
 11
111.0
 21
259.6
 31
0.0
100
AcDbText
 73
     1
  0
ENDBLK
  5
386
100
AcDbEntity
  8
0
100
AcDbBlockEnd
  0
ENDSEC
  0
SECTION
  2
ENTITIES
  0
INSERT
  5
44
100
AcDbEntity
  8
0
  6
Continuous
 62
     7
100
AcDbBlockReference
  2
*G0
 10
0.0
 20
0.0
 30
0.0
  0
LINE
  5
45
100
AcDbEntity
  8
1
370
     9
  6
Continuous
 62
     7
100
AcDbLine
 10
81.100001
 20
244.599999
 30
0.0
 11
148.900001
 21
244.599999
 31
0.0
  0
LINE
  5
46
100
AcDbEntity
  8
1
370
     9
  6
Continuous
 62
     7
100
AcDbLine
 10
154.000001
 20
186.499999
 30
0.0
 11
167.600002
 21
186.499999
 31
0.0
  0
LINE
  5
47
100
AcDbEntity
  8
1
370
     9
  6
Continuous
 62
     7
100
AcDbLine
 10
154.000001
 20
213.499999
 30
0.0
 11
167.600002
 21
213.499999
 31
0.0
  0
ARC
  5
48
100
AcDbEntity
  8
1
370
     9
  6
Continuous
 62
     7
100
AcDbCircle
 10
154.000001
 20
184.999999
 30
0.0
 40
1.5
100
AcDbArc
 50
90.0
 51
180.0
  0
ARC
  5
49
100
AcDbEntity
  8
1
370
     9
  6
Continuous
 62
     7
100
AcDbCircle
 10
154.000001
 20
214.999998
 30
0.0
 40
1.5
100
AcDbArc
 50
180.0
 51
-90.0
  0
LINE
  5
4A
100
AcDbEntity
  8
1
370
     9
  6
Continuous
 62
     7
100
AcDbLine
 10
152.500001
 20
163.0
 30
0.0
 11
152.500001
 21
241.0
 31
0.0
  0
ARC
  5
4B
100
AcDbEntity
  8
1
370
     9
  6
Continuous
 62
     7
100
AcDbCircle
 10
148.900001
 20
241.0
 30
0.0
 40
3.599999
100
AcDbArc
 50
0.0
 51
90.0
  0
LINE
  5
4C
100
AcDbEntity
  8
1
370
     9
  6
Continuous
 62
     7
100
AcDbLine
 10
152.500001
 20
163.0
 30
0.0
 11
115.0
 21
163.0
 31
0.0
  0
INSERT
  5
58
100
AcDbEntity
  8
3
370
     9
  6
Continuous
 62
   114
100
AcDbBlockReference
  2
*G1
 10
0.0
 20
0.0
 30
0.0
  0
LINE
  5
59
100
AcDbEntity
  8
1
370
     9
  6
Continuous
 62
     7
100
AcDbLine
 10
77.5
 20
228.049994
 30
0.0
 11
76.19107
 21
229.562178
 31
0.0
  0
LINE
  5
5A
100
AcDbEntity
  8
1
370
     9
  6
Continuous
 62
     7
100
AcDbLine
 10
77.5
 20
228.049994
 30
0.0
 11
75.610341
 21
228.705119
 31
0.0
  0
TEXT
  5
5B
100
AcDbEntity
  8
1
370
     9
  6
Continuous
 62
     7
100
AcDbText
 10
47.924468
 20
234.239362
 30
0.0
 40
4.0
  1
防滴ケース
 41
0.833333
 11
47.924468
 21
234.239362
 31
0.0
100
AcDbText
 73
     1
  0
LINE
  5
5C
100
AcDbEntity
  8
1
370
     9
  6
Continuous
 62
     7
100
AcDbLine
 10
68.328682
 20
234.264325
 30
0.0
 11
47.924468
 21
234.264325
 31
0.0
  0
LINE
  5
5D
100
AcDbEntity
  8
1
370
     9
  6
Continuous
 62
     7
100
AcDbLine
 10
77.5
 20
228.049994
 30
0.0
 11
68.328682
 21
234.264325
 31
0.0
  0
ARC
  5
5E
100
AcDbEntity
  8
1
370
     9
  6
Continuous
 62
     7
100
AcDbCircle
 10
81.100001
 20
241.0
 30
0.0
 40
3.600001
100
AcDbArc
 50
90.0
 51
180.0
  0
LINE
  5
5F
100
AcDbEntity
  8
1
370
     9
  6
Continuous
 62
     7
100
AcDbLine
 10
77.5
 20
163.0
 30
0.0
 11
77.5
 21
241.0
 31
0.0
  0
LINE
  5
60
100
AcDbEntity
  8
1
370
     9
  6
Continuous
 62
     7
100
AcDbLine
 10
77.5
 20
163.0
 30
0.0
 11
115.0
 21
163.0
 31
0.0
  0
ARC
  5
61
100
AcDbEntity
  8
1
370
     9
  6
Continuous
 62
     7
100
AcDbCircle
 10
137.218339
 20
113.635495
 30
0.0
 40
4.284875
100
AcDbArc
 50
-129.948579
 51
-50.051421
  0
ARC
  5
62
100
AcDbEntity
  8
1
370
     9
  6
Continuous
 62
     7
100
AcDbCircle
 10
120.751435
 20
113.552781
 30
0.0
 40
4.202161
100
AcDbArc
 50
-130.356754
 51
-49.643246
  0
ARC
  5
63
100
AcDbEntity
  8
1
370
     9
  6
Continuous
 62
     7
100
AcDbCircle
 10
128.969771
 20
124.960033
 30
0.0
 40
15.609443
100
AcDbArc
 50
-110.620378
 51
-69.379622
  0
LINE
  5
64
100
AcDbEntity
  8
1
370
     9
  6
Continuous
 62
     7
100
AcDbLine
 10
134.46702
 20
129.515173
 30
0.0
 11
134.467018
 21
110.35062
 31
0.0
  0
LINE
  5
65
100
AcDbEntity
  8
1
370
     9
  6
Continuous
 62
     7
100
AcDbLine
 10
123.472523
 20
129.515173
 30
0.0
 11
123.472522
 21
110.35062
 31
0.0
  0
LINE
  5
66
100
AcDbEntity
  8
1
370
     9
  6
Continuous
 62
     7
100
AcDbLine
 10
136.9375
 20
102.258808
 30
0.0
 11
138.351714
 21
100.844594
 31
0.0
  0
LINE
  5
67
100
AcDbEntity
  8
1
370
     9
  6
Continuous
 62
     7
100
AcDbLine
 10
136.9375
 20
102.258808
 30
0.0
 11
138.869352
 21
101.74117
 31
0.0
  0
TEXT
  5
68
100
AcDbEntity
  8
1
370
     9
  6
Continuous
 62
     7
100
AcDbText
 10
158.768617
 20
89.576064
 30
0.0
 40
4.0
  1
5/8-18UNF
 41
0.5
 11
158.768617
 21
89.576064
 31
0.0
100
AcDbText
 73
     1
  0
LINE
  5
69
100
AcDbEntity
  8
1
370
     9
  6
Continuous
 62
     7
100
AcDbLine
 10
158.781985
 20
89.64689
 30
0.0
 11
176.768617
 21
89.64689
 31
0.0
  0
LINE
  5
6A
100
AcDbEntity
  8
1
370
     9
  6
Continuous
 62
     7
100
AcDbLine
 10
136.9375
 20
102.258808
 30
0.0
 11
158.781985
 21
89.64689
 31
0.0
  0
LINE
  5
6B
100
AcDbEntity
  8
1
370
     9
  6
Continuous
 62
     7
100
AcDbLine
 10
134.375
 20
93.375002
 30
0.0
 11
135.789213
 21
91.960788
 31
0.0
  0
LINE
  5
6C
100
AcDbEntity
  8
1
370
     9
  6
Continuous
 62
     7
100
AcDbLine
 10
134.375
 20
93.375002
 30
0.0
 11
136.306852
 21
92.857364
 31
0.0
  0
TEXT
  5
6D
100
AcDbEntity
  8
1
370
     9
  6
Continuous
 62
     7
100
AcDbText
 10
156.614362
 20
80.671809
 30
0.0
 40
4.0
  1
ストレーナ
 41
0.833333
 11
156.614362
 21
80.671809
 31
0.0
100
AcDbText
 73
     1
  0
LINE
  5
6E
100
AcDbEntity
  8
1
370
     9
  6
Continuous
 62
     7
100
AcDbLine
 10
156.420736
 20
80.64689
 30
0.0
 11
176.614362
 21
80.64689
 31
0.0
  0
LINE
  5
6F
100
AcDbEntity
  8
1
370
     9
  6
Continuous
 62
     7
100
AcDbLine
 10
134.375
 20
93.375002
 30
0.0
 11
156.420736
 21
80.64689
 31
0.0
  0
INSERT
  5
7B
100
AcDbEntity
  8
3
370
     9
  6
Continuous
 62
   114
100
AcDbBlockReference
  2
*G2
 10
0.0
 20
0.0
 30
0.0
  0
TEXT
  5
7C
100
AcDbEntity
  8
1
370
     9
  6
Continuous
 62
     7
100
AcDbText
 10
160.811963
 20
94.851088
 30
0.0
 40
4.0
  1
入口
 41
0.833333
 11
160.811963
 21
94.851088
 31
0.0
100
AcDbText
 73
     1
  0
LINE
  5
7D
100
AcDbEntity
  8
1
370
     9
  6
Continuous
 62
     7
100
AcDbLine
 10
129.405639
 20
103.321175
 30
0.0
 11
130.496624
 21
103.031492
 31
0.0
  0
LINE
  5
7E
100
AcDbEntity
  8
1
370
     9
  6
Continuous
 62
     7
100
AcDbLine
 10
128.107605
 20
103.736371
 30
0.0
 11
129.405639
 21
103.321175
 31
0.0
  0
LINE
  5
7F
100
AcDbEntity
  8
1
370
     9
  6
Continuous
 62
     7
100
AcDbLine
 10
136.744643
 20
104.02488
 30
0.0
 11
136.9375
 21
104.110191
 31
0.0
  0
LINE
  5
80
100
AcDbEntity
  8
1
370
     9
  6
Continuous
 62
     7
100
AcDbLine
 10
136.194197
 20
103.784854
 30
0.0
 11
136.744643
 21
104.02488
 31
0.0
  0
LINE
  5
81
100
AcDbEntity
  8
1
370
     9
  6
Continuous
 62
     7
100
AcDbLine
 10
135.361239
 20
103.44721
 30
0.0
 11
136.194197
 21
103.784854
 31
0.0
  0
LINE
  5
82
100
AcDbEntity
  8
1
370
     9
  6
Continuous
 62
     7
100
AcDbLine
 10
134.351369
 20
103.11334
 30
0.0
 11
135.361239
 21
103.44721
 31
0.0
  0
LINE
  5
83
100
AcDbEntity
  8
1
370
     9
  6
Continuous
 62
     7
100
AcDbLine
 10
133.295042
 20
102.888959
 30
0.0
 11
134.351369
 21
103.11334
 31
0.0
  0
LINE
  5
84
100
AcDbEntity
  8
1
370
     9
  6
Continuous
 62
     7
100
AcDbLine
 10
132.349927
 20
102.815644
 30
0.0
 11
133.295042
 21
102.888959
 31
0.0
  0
LINE
  5
85
100
AcDbEntity
  8
1
370
     9
  6
Continuous
 62
     7
100
AcDbLine
 10
131.687322
 20
102.839949
 30
0.0
 11
132.349927
 21
102.815644
 31
0.0
  0
LINE
  5
86
100
AcDbEntity
  8
1
370
     9
  6
Continuous
 62
     7
100
AcDbLine
 10
131.448008
 20
102.864127
 30
0.0
 11
131.687322
 21
102.839949
 31
0.0
  0
LINE
  5
87
100
AcDbEntity
  8
1
370
     9
  6
Continuous
 62
     7
100
AcDbLine
 10
131.205107
 20
102.896805
 30
0.0
 11
131.448008
 21
102.864127
 31
0.0
  0
LINE
  5
88
100
AcDbEntity
  8
1
370
     9
  6
Continuous
 62
     7
100
AcDbLine
 10
130.496624
 20
103.031492
 30
0.0
 11
131.205107
 21
102.896805
 31
0.0
  0
LINE
  5
89
100
AcDbEntity
  8
1
370
     9
  6
Continuous
 62
     7
100
AcDbLine
 10
135.9375
 20
105.6
 30
0.0
 11
136.9375
 21
107.332051
 31
0.0
  0
LINE
  5
8A
100
AcDbEntity
  8
1
370
     9
  6
Continuous
 62
     7
100
AcDbLine
 10
135.9375
 20
105.6
 30
0.0
 11
135.9375
 21
97.600001
 31
0.0
  0
LINE
  5
8B
100
AcDbEntity
  8
1
370
     9
  6
Continuous
 62
     7
100
AcDbLine
 10
126.843664
 20
104.151569
 30
0.0
 11
128.107605
 21
103.736371
 31
0.0
  0
LINE
  5
8C
100
AcDbEntity
  8
1
370
     9
  6
Continuous
 62
     7
100
AcDbLine
 10
125.834985
 20
104.441252
 30
0.0
 11
126.843664
 21
104.151569
 31
0.0
  0
LINE
  5
8D
100
AcDbEntity
  8
1
370
     9
  6
Continuous
 62
     7
100
AcDbLine
 10
125.208809
 20
104.57594
 30
0.0
 11
125.834985
 21
104.441252
 31
0.0
  0
LINE
  5
8E
100
AcDbEntity
  8
1
370
     9
  6
Continuous
 62
     7
100
AcDbLine
 10
125.0
 20
104.608617
 30
0.0
 11
125.208809
 21
104.57594
 31
0.0
  0
LINE
  5
8F
100
AcDbEntity
  8
1
370
     9
  6
Continuous
 62
     7
100
AcDbLine
 10
124.797459
 20
104.632795
 30
0.0
 11
125.0
 21
104.608617
 31
0.0
  0
LINE
  5
90
100
AcDbEntity
  8
1
370
     9
  6
Continuous
 62
     7
100
AcDbLine
 10
124.253448
 20
104.6571
 30
0.0
 11
124.797459
 21
104.632795
 31
0.0
  0
LINE
  5
91
100
AcDbEntity
  8
1
370
     9
  6
Continuous
 62
     7
100
AcDbLine
 10
123.519975
 20
104.583785
 30
0.0
 11
124.253448
 21
104.6571
 31
0.0
  0
LINE
  5
92
100
AcDbEntity
  8
1
370
     9
  6
Continuous
 62
     7
100
AcDbLine
 10
122.756235
 20
104.359404
 30
0.0
 11
123.519975
 21
104.583785
 31
0.0
  0
LINE
  5
93
100
AcDbEntity
  8
1
370
     9
  6
Continuous
 62
     7
100
AcDbLine
 10
122.073046
 20
104.025534
 30
0.0
 11
122.756235
 21
104.359404
 31
0.0
  0
LINE
  5
94
100
AcDbEntity
  8
1
370
     9
  6
Continuous
 62
     7
100
AcDbLine
 10
121.534037
 20
103.68789
 30
0.0
 11
122.073046
 21
104.025534
 31
0.0
  0
LINE
  5
95
100
AcDbEntity
  8
1
370
     9
  6
Continuous
 62
     7
100
AcDbLine
 10
121.184489
 20
103.447864
 30
0.0
 11
121.534037
 21
103.68789
 31
0.0
  0
LINE
  5
96
100
AcDbEntity
  8
1
370
     9
  6
Continuous
 62
     7
100
AcDbLine
 10
121.062499
 20
103.362553
 30
0.0
 11
121.184489
 21
103.447864
 31
0.0
  0
LINE
  5
97
100
AcDbEntity
  8
1
370
     9
  6
Continuous
 62
     7
100
AcDbLine
 10
122.062499
 20
105.6
 30
0.0
 11
121.062499
 21
107.332051
 31
0.0
  0
LINE
  5
98
100
AcDbEntity
  8
1
370
     9
  6
Continuous
 62
     7
100
AcDbLine
 10
122.062499
 20
105.6
 30
0.0
 11
122.062499
 21
97.600001
 31
0.0
  0
LINE
  5
99
100
AcDbEntity
  8
1
370
     9
  6
Continuous
 62
     7
100
AcDbLine
 10
118.030346
 20
113.442174
 30
0.0
 11
118.030352
 21
110.35061
 31
0.0
  0
LINE
  5
9A
100
AcDbEntity
  8
1
370
     9
  6
Continuous
 62
     7
100
AcDbLine
 10
125.0
 20
92.000001
 30
0.0
 11
132.999999
 21
92.000001
 31
0.0
  0
LINE
  5
9B
100
AcDbEntity
  8
1
370
     9
  6
Continuous
 62
     7
100
AcDbLine
 10
134.550001
 20
97.600001
 30
0.0
 11
134.550001
 21
103.179009
 31
0.0
  0
LINE
  5
9C
100
AcDbEntity
  8
1
370
     9
  6
Continuous
 62
     7
100
AcDbLine
 10
134.400001
 20
97.100001
 30
0.0
 11
134.400001
 21
99.000001
 31
0.0
  0
LINE
  5
9D
100
AcDbEntity
  8
1
370
     9
  6
Continuous
 62
     7
100
AcDbLine
 10
133.900001
 20
99.000001
 30
0.0
 11
133.250001
 21
100.891429
 31
0.0
  0
LINE
  5
9E
100
AcDbEntity
  8
1
370
     9
  6
Continuous
 62
     7
100
AcDbLine
 10
134.400001
 20
99.000001
 30
0.0
 11
133.722856
 21
101.053933
 31
0.0
  0
LINE
  5
9F
100
AcDbEntity
  8
1
370
     9
  6
Continuous
 62
     7
100
AcDbLine
 10
133.250001
 20
100.89143
 30
0.0
 11
133.722856
 21
101.053933
 31
0.0
  0
LINE
  5
A0
100
AcDbEntity
  8
1
370
     9
  6
Continuous
 62
     7
100
AcDbLine
 10
133.250001
 20
99.000001
 30
0.0
 11
133.250001
 21
102.885466
 31
0.0
  0
LINE
  5
A1
100
AcDbEntity
  8
1
370
     9
  6
Continuous
 62
     7
100
AcDbLine
 10
132.499999
 20
102.000001
 30
0.0
 11
133.150001
 21
102.000001
 31
0.0
  0
LINE
  5
A2
100
AcDbEntity
  8
1
370
     9
  6
Continuous
 62
     7
100
AcDbLine
 10
133.150001
 20
99.000001
 30
0.0
 11
133.150001
 21
102.000001
 31
0.0
  0
LINE
  5
A3
100
AcDbEntity
  8
1
370
     9
  6
Continuous
 62
     7
100
AcDbLine
 10
133.900001
 20
99.000001
 30
0.0
 11
133.150001
 21
99.000001
 31
0.0
  0
LINE
  5
A4
100
AcDbEntity
  8
1
370
     9
  6
Continuous
 62
     7
100
AcDbLine
 10
136.000001
 20
97.600001
 30
0.0
 11
134.400001
 21
97.600001
 31
0.0
  0
LINE
  5
A5
100
AcDbEntity
  8
1
370
     9
  6
Continuous
 62
     7
100
AcDbLine
 10
136.000001
 20
97.100001
 30
0.0
 11
134.400001
 21
97.100001
 31
0.0
  0
LINE
  5
A6
100
AcDbEntity
  8
1
370
     9
  6
Continuous
 62
     7
100
AcDbLine
 10
136.000001
 20
97.600001
 30
0.0
 11
136.000001
 21
97.100001
 31
0.0
  0
LINE
  5
A7
100
AcDbEntity
  8
1
370
     9
  6
Continuous
 62
     7
100
AcDbLine
 10
135.750001
 20
94.750003
 30
0.0
 11
135.750001
 21
97.100001
 31
0.0
  0
LINE
  5
A8
100
AcDbEntity
  8
1
370
     9
  6
Continuous
 62
     7
100
AcDbLine
 10
132.999999
 20
92.000001
 30
0.0
 11
135.750001
 21
94.750003
 31
0.0
  0
LINE
  5
A9
100
AcDbEntity
  8
1
370
     9
  6
Continuous
 62
     7
100
AcDbLine
 10
132.499999
 20
102.000001
 30
0.0
 11
132.499999
 21
92.000001
 31
0.0
  0
LINE
  5
AA
100
AcDbEntity
  8
1
370
     9
  6
Continuous
 62
     7
100
AcDbLine
 10
136.9375
 20
108.6
 30
0.0
 11
136.9375
 21
98.600001
 31
0.0
  0
LINE
  5
AB
100
AcDbEntity
  8
1
370
     9
  6
Continuous
 62
     7
100
AcDbLine
 10
136.9375
 20
98.600001
 30
0.0
 11
135.9375
 21
97.600001
 31
0.0
  0
LINE
  5
AC
100
AcDbEntity
  8
1
370
     9
  6
Continuous
 62
     7
100
AcDbLine
 10
139.969647
 20
110.350612
 30
0.0
 11
136.9375
 21
108.6
 31
0.0
  0
LINE
  5
AD
100
AcDbEntity
  8
1
370
     9
  6
Continuous
 62
     7
100
AcDbLine
 10
123.450001
 20
97.600001
 30
0.0
 11
123.450001
 21
104.563227
 31
0.0
  0
LINE
  5
AE
100
AcDbEntity
  8
1
370
     9
  6
Continuous
 62
     7
100
AcDbLine
 10
123.600001
 20
99.000001
 30
0.0
 11
124.277146
 21
101.053933
 31
0.0
  0
LINE
  5
AF
100
AcDbEntity
  8
1
370
     9
  6
Continuous
 62
     7
100
AcDbLine
 10
123.600001
 20
97.100001
 30
0.0
 11
123.600001
 21
99.000001
 31
0.0
  0
LINE
  5
B0
100
AcDbEntity
  8
1
370
     9
  6
Continuous
 62
     7
100
AcDbLine
 10
124.750001
 20
100.89143
 30
0.0
 11
124.277146
 21
101.053933
 31
0.0
  0
LINE
  5
B1
100
AcDbEntity
  8
1
370
     9
  6
Continuous
 62
     7
100
AcDbLine
 10
124.100001
 20
99.000001
 30
0.0
 11
124.750001
 21
100.891429
 31
0.0
  0
LINE
  5
B2
100
AcDbEntity
  8
1
370
     9
  6
Continuous
 62
     7
100
AcDbLine
 10
124.750001
 20
104.634915
 30
0.0
 11
124.750001
 21
99.000001
 31
0.0
  0
LINE
  5
B3
100
AcDbEntity
  8
1
370
     9
  6
Continuous
 62
     7
100
AcDbLine
 10
124.850001
 20
99.000001
 30
0.0
 11
124.850001
 21
102.000001
 31
0.0
  0
LINE
  5
B4
100
AcDbEntity
  8
1
370
     9
  6
Continuous
 62
     7
100
AcDbLine
 10
125.5
 20
102.000001
 30
0.0
 11
124.850001
 21
102.000001
 31
0.0
  0
LINE
  5
B5
100
AcDbEntity
  8
1
370
     9
  6
Continuous
 62
     7
100
AcDbLine
 10
124.100001
 20
99.000001
 30
0.0
 11
124.850001
 21
99.000001
 31
0.0
  0
LINE
  5
B6
100
AcDbEntity
  8
1
370
     9
  6
Continuous
 62
     7
100
AcDbLine
 10
122.000001
 20
97.600001
 30
0.0
 11
123.600001
 21
97.600001
 31
0.0
  0
LINE
  5
B7
100
AcDbEntity
  8
1
370
     9
  6
Continuous
 62
     7
100
AcDbLine
 10
122.000001
 20
97.100001
 30
0.0
 11
123.600001
 21
97.100001
 31
0.0
  0
LINE
  5
B8
100
AcDbEntity
  8
1
370
     9
  6
Continuous
 62
     7
100
AcDbLine
 10
122.000001
 20
97.600001
 30
0.0
 11
122.000001
 21
97.100001
 31
0.0
  0
LINE
  5
B9
100
AcDbEntity
  8
1
370
     9
  6
Continuous
 62
     7
100
AcDbLine
 10
122.250001
 20
94.75
 30
0.0
 11
122.250001
 21
97.100001
 31
0.0
  0
LINE
  5
BA
100
AcDbEntity
  8
1
370
     9
  6
Continuous
 62
     7
100
AcDbLine
 10
125.5
 20
102.000001
 30
0.0
 11
132.499999
 21
102.000001
 31
0.0
  0
LINE
  5
BB
100
AcDbEntity
  8
1
370
     9
  6
Continuous
 62
     7
100
AcDbLine
 10
125.5
 20
92.000001
 30
0.0
 11
125.5
 21
102.000001
 31
0.0
  0
LINE
  5
BC
100
AcDbEntity
  8
1
370
     9
  6
Continuous
 62
     7
100
AcDbLine
 10
125.0
 20
92.000001
 30
0.0
 11
122.250001
 21
94.75
 31
0.0
  0
LINE
  5
BD
100
AcDbEntity
  8
1
370
     9
  6
Continuous
 62
     7
100
AcDbLine
 10
121.062499
 20
105.6
 30
0.0
 11
136.9375
 21
105.6
 31
0.0
  0
LINE
  5
BE
100
AcDbEntity
  8
1
370
     9
  6
Continuous
 62
     7
100
AcDbLine
 10
121.062499
 20
108.6
 30
0.0
 11
136.9375
 21
108.6
 31
0.0
  0
LINE
  5
BF
100
AcDbEntity
  8
1
370
     9
  6
Continuous
 62
     7
100
AcDbLine
 10
121.062499
 20
108.6
 30
0.0
 11
121.062499
 21
98.600001
 31
0.0
  0
LINE
  5
C0
100
AcDbEntity
  8
1
370
     9
  6
Continuous
 62
     7
100
AcDbLine
 10
121.062499
 20
98.600001
 30
0.0
 11
122.062499
 21
97.600001
 31
0.0
  0
LINE
  5
C1
100
AcDbEntity
  8
1
370
     9
  6
Continuous
 62
     7
100
AcDbLine
 10
121.062499
 20
108.6
 30
0.0
 11
118.030352
 21
110.35061
 31
0.0
  0
LINE
  5
C2
100
AcDbEntity
  8
1
370
     9
  6
Continuous
 62
     7
100
AcDbLine
 10
139.969656
 20
127.000001
 30
0.0
 11
139.969647
 21
110.350612
 31
0.0
  0
LINE
  5
C3
100
AcDbEntity
  8
1
370
     9
  6
Continuous
 62
     7
100
AcDbLine
 10
176.5
 20
210.049998
 30
0.0
 11
172.100001
 21
210.049998
 31
0.0
  0
LINE
  5
C4
100
AcDbEntity
  8
1
370
     9
  6
Continuous
 62
     7
100
AcDbLine
 10
176.5
 20
189.949998
 30
0.0
 11
172.100001
 21
189.949998
 31
0.0
  0
LINE
  5
C5
100
AcDbEntity
  8
1
370
     9
  6
Continuous
 62
     7
100
AcDbLine
 10
175.0
 20
191.0
 30
0.0
 11
172.100001
 21
191.0
 31
0.0
  0
LINE
  5
C6
100
AcDbEntity
  8
1
370
     9
  6
Continuous
 62
     7
100
AcDbLine
 10
175.0
 20
208.999999
 30
0.0
 11
172.100001
 21
208.999999
 31
0.0
  0
LINE
  5
C7
100
AcDbEntity
  8
1
370
     9
  6
Continuous
 62
     7
100
AcDbLine
 10
175.0
 20
200.0
 30
0.0
 11
175.0
 21
189.949998
 31
0.0
  0
LINE
  5
C8
100
AcDbEntity
  8
1
370
     9
  6
Continuous
 62
     7
100
AcDbLine
 10
175.0
 20
210.049998
 30
0.0
 11
175.0
 21
200.0
 31
0.0
  0
LINE
  5
C9
100
AcDbEntity
  8
1
370
     9
  6
Continuous
 62
     7
100
AcDbLine
 10
177.5
 20
199.999998
 30
0.0
 11
177.5
 21
216.0
 31
0.0
  0
LINE
  5
CA
100
AcDbEntity
  8
1
370
     9
  6
Continuous
 62
     7
100
AcDbLine
 10
177.5
 20
199.999998
 30
0.0
 11
177.5
 21
183.999999
 31
0.0
  0
LINE
  5
CB
100
AcDbEntity
  8
1
370
     9
  6
Continuous
 62
     7
100
AcDbLine
 10
178.5
 20
176.499998
 30
0.0
 11
178.5
 21
200.0
 31
0.0
  0
LINE
  5
CC
100
AcDbEntity
  8
1
370
     9
  6
Continuous
 62
     7
100
AcDbLine
 10
178.5
 20
221.499998
 30
0.0
 11
178.5
 21
200.0
 31
0.0
  0
LINE
  5
CD
100
AcDbEntity
  8
1
370
     9
  6
Continuous
 62
     7
100
AcDbLine
 10
172.100001
 20
200.0
 30
0.0
 11
172.100001
 21
185.499999
 31
0.0
  0
LINE
  5
CE
100
AcDbEntity
  8
1
370
     9
  6
Continuous
 62
     7
100
AcDbLine
 10
172.100001
 20
214.5
 30
0.0
 11
172.100001
 21
200.0
 31
0.0
  0
LINE
  5
CF
100
AcDbEntity
  8
1
370
     9
  6
Continuous
 62
     7
100
AcDbLine
 10
167.600002
 20
185.499999
 30
0.0
 11
167.600002
 21
200.0
 31
0.0
  0
LINE
  5
D0
100
AcDbEntity
  8
1
370
     9
  6
Continuous
 62
     7
100
AcDbLine
 10
167.600002
 20
200.0
 30
0.0
 11
167.600002
 21
214.5
 31
0.0
  0
LINE
  5
D1
100
AcDbEntity
  8
1
370
     9
  6
Continuous
 62
     7
100
AcDbLine
 10
198.499999
 20
144.999998
 30
0.0
 11
184.499998
 21
144.999998
 31
0.0
  0
LINE
  5
D2
100
AcDbEntity
  8
1
370
     9
  6
Continuous
 62
     7
100
AcDbLine
 10
212.499999
 20
144.999998
 30
0.0
 11
198.499999
 21
144.999998
 31
0.0
  0
LINE
  5
D3
100
AcDbEntity
  8
1
370
     9
  6
Continuous
 62
     7
100
AcDbLine
 10
189.149998
 20
151.999997
 30
0.0
 11
189.149998
 21
146.999998
 31
0.0
  0
LINE
  5
D4
100
AcDbEntity
  8
1
370
     9
  6
Continuous
 62
     7
100
AcDbLine
 10
207.849999
 20
146.999998
 30
0.0
 11
207.849999
 21
151.999997
 31
0.0
  0
LINE
  5
D5
100
AcDbEntity
  8
1
370
     9
  6
Continuous
 62
     7
100
AcDbLine
 10
208.999998
 20
146.999998
 30
0.0
 11
208.999998
 21
151.999997
 31
0.0
  0
LINE
  5
D6
100
AcDbEntity
  8
1
370
     9
  6
Continuous
 62
     7
100
AcDbLine
 10
187.999999
 20
146.999998
 30
0.0
 11
187.999999
 21
151.999997
 31
0.0
  0
LINE
  5
D7
100
AcDbEntity
  8
1
370
     9
  6
Continuous
 62
     7
100
AcDbLine
 10
207.849999
 20
146.999998
 30
0.0
 11
187.999999
 21
146.999998
 31
0.0
  0
LINE
  5
D8
100
AcDbEntity
  8
1
370
     9
  6
Continuous
 62
     7
100
AcDbLine
 10
207.849999
 20
146.999998
 30
0.0
 11
207.849999
 21
144.999998
 31
0.0
  0
LINE
  5
D9
100
AcDbEntity
  8
1
370
     9
  6
Continuous
 62
     7
100
AcDbLine
 10
198.499999
 20
151.999997
 30
0.0
 11
186.499998
 21
151.999997
 31
0.0
  0
LINE
  5
DA
100
AcDbEntity
  8
1
370
     9
  6
Continuous
 62
     7
100
AcDbLine
 10
210.499999
 20
151.999997
 30
0.0
 11
198.499999
 21
151.999997
 31
0.0
  0
LINE
  5
DB
100
AcDbEntity
  8
1
370
     9
  6
Continuous
 62
     7
100
AcDbLine
 10
218.999999
 20
175.999998
 30
0.0
 11
198.499999
 21
175.999998
 31
0.0
  0
LINE
  5
DC
100
AcDbEntity
  8
1
370
     9
  6
Continuous
 62
     7
100
AcDbLine
 10
198.499999
 20
175.999998
 30
0.0
 11
179.0
 21
175.999998
 31
0.0
  0
LINE
  5
DD
100
AcDbEntity
  8
1
370
     9
  6
Continuous
 62
     7
100
AcDbLine
 10
218.999999
 20
173.999998
 30
0.0
 11
218.999999
 21
176.999998
 31
0.0
  0
LINE
  5
DE
100
AcDbEntity
  8
1
370
     9
  6
Continuous
 62
     7
100
AcDbLine
 10
218.999999
 20
220.999998
 30
0.0
 11
218.999999
 21
176.999998
 31
0.0
  0
LINE
  5
DF
100
AcDbEntity
  8
1
370
     9
  6
Continuous
 62
     7
100
AcDbLine
 10
218.999999
 20
220.999998
 30
0.0
 11
218.999999
 21
223.999998
 31
0.0
  0
LINE
  5
E0
100
AcDbEntity
  8
1
370
     9
  6
Continuous
 62
     7
100
AcDbLine
 10
218.999999
 20
221.999998
 30
0.0
 11
179.0
 21
221.999998
 31
0.0
  0
TEXT
  5
E1
100
AcDbEntity
  8
1
370
     9
  6
Continuous
 62
     7
100
AcDbText
 10
213.348533
 20
81.5167
 30
0.0
 40
8.0
  1
１：１
 41
0.833333
 11
213.348533
 21
81.5167
 31
0.0
100
AcDbText
 73
     1
  0
TEXT
  5
E2
100
AcDbEntity
  8
1
370
     9
  6
Continuous
 62
     7
100
AcDbText
 10
249.070724
 20
71.710598
 30
0.0
 40
8.0
  1
GKV-34BS
 41
0.5
 11
249.070724
 21
71.710598
 31
0.0
100
AcDbText
 73
     1
  0
TEXT
  5
E3
100
AcDbEntity
  8
1
370
     9
  6
Continuous
 62
     7
100
AcDbText
 10
249.070724
 20
81.5167
 30
0.0
 40
8.0
  1
GKV-18BS
 41
0.5
 11
249.070724
 21
81.5167
 31
0.0
100
AcDbText
 73
     1
  0
TEXT
  5
E4
100
AcDbEntity
  8
1
370
     9
  6
Continuous
 62
     7
100
AcDbText
 10
249.070724
 20
61.904496
 30
0.0
 40
8.0
  1
GKV-60BS
 41
0.5
 11
249.070724
 21
61.904496
 31
0.0
100
AcDbText
 73
     1
  0
INSERT
  5
F0
100
AcDbEntity
  8
3
370
     9
  6
Continuous
 62
   114
100
AcDbBlockReference
  2
*G3
 10
0.0
 20
0.0
 30
0.0
  0
TEXT
  5
F1
100
AcDbEntity
  8
1
370
     9
  6
Continuous
 62
     7
100
AcDbText
 10
43.875
 20
159.630319
 30
0.0
 40
4.0
  1
出口
 41
0.833333
 11
43.875
 21
159.630319
 31
0.0
100
AcDbText
 73
     1
  0
LINE
  5
F2
100
AcDbEntity
  8
1
370
     9
  6
Continuous
 62
     7
100
AcDbLine
 10
195.760871
 20
221.999998
 30
0.0
 11
196.684884
 21
223.773751
 31
0.0
  0
LINE
  5
F3
100
AcDbEntity
  8
1
370
     9
  6
Continuous
 62
     7
100
AcDbLine
 10
195.760871
 20
221.999998
 30
0.0
 11
195.674213
 21
223.99812
 31
0.0
  0
TEXT
  5
F4
100
AcDbEntity
  8
1
370
     9
  6
Continuous
 62
     7
100
AcDbText
 10
160.642554
 20
231.941489
 30
0.0
 40
4.0
  1
ターミナルボックス
 41
0.833333
 11
160.642554
 21
231.941489
 31
0.0
100
AcDbText
 73
     1
  0
LINE
  5
F5
100
AcDbEntity
  8
1
370
     9
  6
Continuous
 62
     7
100
AcDbLine
 10
197.99449
 20
232.061368
 30
0.0
 11
160.642554
 21
232.061368
 31
0.0
  0
LINE
  5
F6
100
AcDbEntity
  8
1
370
     9
  6
Continuous
 62
     7
100
AcDbLine
 10
195.760871
 20
221.999998
 30
0.0
 11
197.99449
 21
232.061368
 31
0.0
  0
LINE
  5
F7
100
AcDbEntity
  8
1
370
     9
  6
Continuous
 62
     7
100
AcDbLine
 10
192.191224
 20
139.999998
 30
0.0
 11
190.77701
 21
138.585785
 31
0.0
  0
LINE
  5
F8
100
AcDbEntity
  8
1
370
     9
  6
Continuous
 62
     7
100
AcDbLine
 10
192.191224
 20
139.999998
 30
0.0
 11
191.673586
 21
138.068147
 31
0.0
  0
TEXT
  5
F9
100
AcDbEntity
  8
1
370
     9
  6
Continuous
 62
     7
100
AcDbText
 10
188.928191
 20
125.018617
 30
0.0
 40
4.0
  1
  (JIS F8801)     
 41
0.608108
 11
188.928191
 21
125.018617
 31
0.0
100
AcDbText
 73
     1
  0
LINE
  5
FA
100
AcDbEntity
  8
1
370
     9
  6
Continuous
 62
     7
100
AcDbLine
 10
183.530969
 20
124.999998
 30
0.0
 11
224.928191
 21
124.999998
 31
0.0
  0
LINE
  5
FB
100
AcDbEntity
  8
1
370
     9
  6
Continuous
 62
     7
100
AcDbLine
 10
192.191224
 20
139.999998
 30
0.0
 11
183.530969
 21
124.999998
 31
0.0
  0
LINE
  5
FC
100
AcDbEntity
  8
1
370
     9
  6
Continuous
 62
     7
100
AcDbLine
 10
157.718536
 20
133.158991
 30
0.0
 11
156.487213
 21
131.582969
 31
0.0
  0
LINE
  5
FD
100
AcDbEntity
  8
1
370
     9
  6
Continuous
 62
     7
100
AcDbLine
 10
157.718536
 20
133.158991
 30
0.0
 11
157.44019
 21
131.178455
 31
0.0
  0
LINE
  5
FE
100
AcDbEntity
  8
1
370
     9
  6
Continuous
 62
     7
100
AcDbLine
 10
145.765754
 20
105.0
 30
0.0
 11
185.853723
 21
105.0
 31
0.0
  0
LINE
  5
FF
100
AcDbEntity
  8
1
370
     9
  6
Continuous
 62
     7
100
AcDbLine
 10
157.718536
 20
133.158991
 30
0.0
 11
145.765754
 21
105.0
 31
0.0
  0
LINE
  5
100
100
AcDbEntity
  8
1
370
     9
  6
Continuous
 62
     7
100
AcDbLine
 10
66.994685
 20
144.524999
 30
0.0
 11
66.477047
 21
146.456851
 31
0.0
  0
LINE
  5
101
100
AcDbEntity
  8
1
370
     9
  6
Continuous
 62
     7
100
AcDbLine
 10
66.994685
 20
144.524999
 30
0.0
 11
65.580472
 21
145.939213
 31
0.0
  0
TEXT
  5
102
100
AcDbEntity
  8
1
370
     9
  6
Continuous
 62
     7
100
AcDbText
 10
43.228723
 20
154.101064
 30
0.0
 40
4.0
  1
3/4-16UNF
 41
0.5
 11
43.228723
 21
154.101064
 31
0.0
100
AcDbText
 73
     1
  0
LINE
  5
103
100
AcDbEntity
  8
1
370
     9
  6
Continuous
 62
     7
100
AcDbLine
 10
61.221183
 20
154.524998
 30
0.0
 11
43.228723
 21
154.524998
 31
0.0
  0
LINE
  5
104
100
AcDbEntity
  8
1
370
     9
  6
Continuous
 62
     7
100
AcDbLine
 10
66.994685
 20
144.524999
 30
0.0
 11
61.221183
 21
154.524998
 31
0.0
  0
INSERT
  5
110
100
AcDbEntity
  8
3
370
     9
  6
Continuous
 62
   114
100
AcDbBlockReference
  2
*G4
 10
0.0
 20
0.0
 30
0.0
  0
INSERT
  5
11C
100
AcDbEntity
  8
3
370
     9
  6
Continuous
 62
   114
100
AcDbBlockReference
  2
*G5
 10
0.0
 20
0.0
 30
0.0
  0
TEXT
  5
11D
100
AcDbEntity
  8
1
370
     9
  6
Continuous
 62
     7
100
AcDbText
 10
86.026615
 20
114.011199
 30
0.0
 40
4.0
  1
流れ方向
 41
0.833333
 11
86.026615
 21
114.011199
 31
0.0
100
AcDbText
 73
     1
  0
INSERT
  5
129
100
AcDbEntity
  8
3
370
     9
  6
Continuous
 62
   114
100
AcDbBlockReference
  2
*G6
 10
0.0
 20
0.0
 30
0.0
  0
LINE
  5
12A
100
AcDbEntity
  8
1
370
     9
  6
Continuous
 62
     7
100
AcDbLine
 10
103.030345
 20
112.030347
 30
0.0
 11
103.030345
 21
103.258978
 31
0.0
  0
LINE
  5
12B
100
AcDbEntity
  8
1
370
     9
  6
Continuous
 62
     7
100
AcDbLine
 10
70.922307
 20
112.030347
 30
0.0
 11
103.030345
 21
112.030347
 31
0.0
  0
LINE
  5
12C
100
AcDbEntity
  8
1
370
     9
  6
Continuous
 62
     7
100
AcDbLine
 10
81.847902
 20
116.028998
 30
0.0
 11
70.922307
 21
112.030347
 31
0.0
  0
LINE
  5
12D
100
AcDbEntity
  8
1
370
     9
  6
Continuous
 62
     7
100
AcDbLine
 10
85.909201
 20
109.838091
 30
0.0
 11
81.847902
 21
116.028998
 31
0.0
  0
LINE
  5
12E
100
AcDbEntity
  8
1
370
     9
  6
Continuous
 62
     7
100
AcDbLine
 10
115.0
 20
258.6
 30
0.0
 11
115.0
 21
249.599999
 31
0.0
  0
LINE
  5
12F
100
AcDbEntity
  8
1
370
     9
  6
CENTER
 62
     7
100
AcDbLine
 10
115.0
 20
119.030347
 30
0.0
 11
115.0
 21
249.599999
 31
0.0
  0
LINE
  5
130
100
AcDbEntity
  8
1
370
     9
  6
CENTER
 62
     7
100
AcDbLine
 10
164.5
 20
128.0
 30
0.0
 11
164.5
 21
149.000001
 31
0.0
  0
LINE
  5
131
100
AcDbEntity
  8
1
370
     9
  6
CENTER
 62
     7
100
AcDbLine
 10
158.499999
 20
140.295217
 30
0.0
 11
158.499999
 21
129.682615
 31
0.0
  0
LINE
  5
132
100
AcDbEntity
  8
1
370
     9
  6
CENTER
 62
     7
100
AcDbLine
 10
170.5
 20
140.295217
 30
0.0
 11
170.5
 21
129.843411
 31
0.0
  0
LINE
  5
133
100
AcDbEntity
  8
1
370
     9
  6
CENTER
 62
     7
100
AcDbLine
 10
152.690608
 20
135.0
 30
0.0
 11
176.97096
 21
135.0
 31
0.0
  0
CIRCLE
  5
134
100
AcDbEntity
  8
1
370
     9
  6
Continuous
 62
     7
100
AcDbCircle
 10
158.499999
 20
135.0
 30
0.0
 40
2.0
  0
CIRCLE
  5
135
100
AcDbEntity
  8
1
370
     9
  6
Continuous
 62
     7
100
AcDbCircle
 10
170.5
 20
135.0
 30
0.0
 40
2.0
  0
LINE
  5
136
100
AcDbEntity
  8
1
370
     9
  6
CENTER
 62
     7
100
AcDbLine
 10
131.001065
 20
135.0
 30
0.0
 11
147.0
 21
135.0
 31
0.0
  0
LINE
  5
137
100
AcDbEntity
  8
1
370
     9
  6
Continuous
 62
     7
100
AcDbLine
 10
176.5
 20
189.949998
 30
0.0
 11
175.0
 21
191.0
 31
0.0
  0
LINE
  5
138
100
AcDbEntity
  8
1
370
     9
  6
Continuous
 62
     7
100
AcDbLine
 10
175.0
 20
208.999999
 30
0.0
 11
176.5
 21
210.049998
 31
0.0
  0
LINE
  5
139
100
AcDbEntity
  8
1
370
     9
  6
CENTER
 62
     7
100
AcDbLine
 10
198.499998
 20
180.365487
 30
0.0
 11
198.499998
 21
137.233812
 31
0.0
  0
LINE
  5
13A
100
AcDbEntity
  8
1
370
     9
  6
CENTER
 62
     7
100
AcDbLine
 10
216.829572
 20
198.999998
 30
0.0
 11
229.872061
 21
198.999998
 31
0.0
  0
LINE
  5
13B
100
AcDbEntity
  8
1
370
     9
  6
CENTER
 62
     7
100
AcDbLine
 10
183.499999
 20
199.999999
 30
0.0
 11
141.217805
 21
199.999999
 31
0.0
  0
LINE
  5
13C
100
AcDbEntity
  8
1
370
     9
  6
CENTER
 62
     7
100
AcDbLine
 10
129.000001
 20
131.179228
 30
0.0
 11
129.000001
 21
87.400002
 31
0.0
  0
LINE
  5
13D
100
AcDbEntity
  8
1
370
     9
  6
CENTER
 62
     7
100
AcDbLine
 10
99.0
 20
135.0
 30
0.0
 11
49.999999
 21
135.0
 31
0.0
  0
LINE
  5
13E
100
AcDbEntity
  8
1
370
     9
  6
CENTER
 62
     7
100
AcDbLine
 10
141.5
 20
176.055091
 30
0.0
 11
141.5
 21
163.456172
 31
0.0
  0
LINE
  5
13F
100
AcDbEntity
  8
1
370
     9
  6
CENTER
 62
     7
100
AcDbLine
 10
134.955548
 20
169.0
 30
0.0
 11
146.907318
 21
169.0
 31
0.0
  0
LINE
  5
140
100
AcDbEntity
  8
1
370
     9
  6
CENTER
 62
     7
100
AcDbLine
 10
88.5
 20
176.055091
 30
0.0
 11
88.5
 21
163.456172
 31
0.0
  0
LINE
  5
141
100
AcDbEntity
  8
1
370
     9
  6
CENTER
 62
     7
100
AcDbLine
 10
95.044452
 20
169.0
 30
0.0
 11
83.092683
 21
169.0
 31
0.0
  0
LINE
  5
142
100
AcDbEntity
  8
1
370
     9
  6
Continuous
 62
     7
100
AcDbLine
 10
72.0
 20
126.499999
 30
0.0
 11
73.775351
 21
125.475
 31
0.0
  0
LINE
  5
143
100
AcDbEntity
  8
1
370
     9
  6
Continuous
 62
     7
100
AcDbLine
 10
60.999999
 20
126.499999
 30
0.0
 11
72.0
 21
126.499999
 31
0.0
  0
LINE
  5
144
100
AcDbEntity
  8
1
370
     9
  6
Continuous
 62
     7
100
AcDbLine
 10
73.775354
 20
144.524999
 30
0.0
 11
72.0
 21
143.499998
 31
0.0
  0
LINE
  5
145
100
AcDbEntity
  8
1
370
     9
  6
Continuous
 62
     7
100
AcDbLine
 10
72.0
 20
143.499998
 30
0.0
 11
60.999997
 21
143.499998
 31
0.0
  0
LINE
  5
146
100
AcDbEntity
  8
1
370
     9
  6
Continuous
 62
     7
100
AcDbLine
 10
174.0
 20
129.5
 30
0.0
 11
174.0
 21
125.000001
 31
0.0
  0
LINE
  5
147
100
AcDbEntity
  8
1
370
     9
  6
Continuous
 62
     7
100
AcDbLine
 10
164.5
 20
128.0
 30
0.0
 11
164.5
 21
125.000001
 31
0.0
  0
LINE
  5
148
100
AcDbEntity
  8
1
370
     9
  6
Continuous
 62
     7
100
AcDbLine
 10
154.999999
 20
129.5
 30
0.0
 11
154.999999
 21
125.000001
 31
0.0
  0
LINE
  5
149
100
AcDbEntity
  8
1
370
     9
  6
Continuous
 62
     7
100
AcDbLine
 10
174.0
 20
140.500001
 30
0.0
 11
174.0
 21
146.000001
 31
0.0
  0
LINE
  5
14A
100
AcDbEntity
  8
1
370
     9
  6
Continuous
 62
     7
100
AcDbLine
 10
173.0
 20
141.077351
 30
0.0
 11
173.0
 21
146.000001
 31
0.0
  0
LINE
  5
14B
100
AcDbEntity
  8
1
370
     9
  6
Continuous
 62
     7
100
AcDbLine
 10
155.999999
 20
141.077351
 30
0.0
 11
155.999999
 21
146.000001
 31
0.0
  0
LINE
  5
14C
100
AcDbEntity
  8
1
370
     9
  6
Continuous
 62
     7
100
AcDbLine
 10
154.999999
 20
140.500001
 30
0.0
 11
154.999999
 21
146.000001
 31
0.0
  0
CIRCLE
  5
14D
100
AcDbEntity
  8
1
370
     9
  6
Continuous
 62
     7
100
AcDbCircle
 10
158.499999
 20
135.0
 30
0.0
 40
1.65
  0
CIRCLE
  5
14E
100
AcDbEntity
  8
1
370
     9
  6
Continuous
 62
     7
100
AcDbCircle
 10
170.5
 20
135.0
 30
0.0
 40
1.65
  0
LINE
  5
14F
100
AcDbEntity
  8
1
370
     9
  6
Continuous
 62
     7
100
AcDbLine
 10
154.999999
 20
129.5
 30
0.0
 11
154.999999
 21
140.500001
 31
0.0
  0
LINE
  5
150
100
AcDbEntity
  8
1
370
     9
  6
Continuous
 62
     7
100
AcDbLine
 10
157.598076
 20
128.0
 30
0.0
 11
154.999999
 21
129.5
 31
0.0
  0
LINE
  5
151
100
AcDbEntity
  8
1
370
     9
  6
Continuous
 62
     7
100
AcDbLine
 10
171.401923
 20
128.0
 30
0.0
 11
157.598076
 21
128.0
 31
0.0
  0
LINE
  5
152
100
AcDbEntity
  8
1
370
     9
  6
Continuous
 62
     7
100
AcDbLine
 10
174.0
 20
129.5
 30
0.0
 11
171.401923
 21
128.0
 31
0.0
  0
LINE
  5
153
100
AcDbEntity
  8
1
370
     9
  6
Continuous
 62
     7
100
AcDbLine
 10
174.0
 20
140.500001
 30
0.0
 11
174.0
 21
129.5
 31
0.0
  0
LINE
  5
154
100
AcDbEntity
  8
1
370
     9
  6
Continuous
 62
     7
100
AcDbLine
 10
171.401923
 20
142.000001
 30
0.0
 11
174.0
 21
140.500001
 31
0.0
  0
LINE
  5
155
100
AcDbEntity
  8
1
370
     9
  6
Continuous
 62
     7
100
AcDbLine
 10
157.598075
 20
142.000001
 30
0.0
 11
171.401923
 21
142.000001
 31
0.0
  0
LINE
  5
156
100
AcDbEntity
  8
1
370
     9
  6
Continuous
 62
     7
100
AcDbLine
 10
154.999999
 20
140.500001
 30
0.0
 11
157.598075
 21
142.000001
 31
0.0
  0
LINE
  5
157
100
AcDbEntity
  8
1
370
     9
  6
Continuous
 62
     7
100
AcDbLine
 10
189.149998
 20
144.999998
 30
0.0
 11
189.149998
 21
146.999998
 31
0.0
  0
LINE
  5
158
100
AcDbEntity
  8
1
370
     9
  6
Continuous
 62
     7
100
AcDbLine
 10
208.999998
 20
146.999998
 30
0.0
 11
207.849999
 21
146.999998
 31
0.0
  0
LINE
  5
159
100
AcDbEntity
  8
1
370
     9
  6
Continuous
 62
     7
100
AcDbLine
 10
212.499999
 20
139.999998
 30
0.0
 11
212.499999
 21
144.999998
 31
0.0
  0
LINE
  5
15A
100
AcDbEntity
  8
1
370
     9
  6
Continuous
 62
     7
100
AcDbLine
 10
184.499998
 20
139.999998
 30
0.0
 11
212.499999
 21
139.999998
 31
0.0
  0
LINE
  5
15B
100
AcDbEntity
  8
1
370
     9
  6
Continuous
 62
     7
100
AcDbLine
 10
184.499998
 20
144.999998
 30
0.0
 11
184.499998
 21
139.999998
 31
0.0
  0
ARC
  5
15C
100
AcDbEntity
  8
1
370
     9
  6
Continuous
 62
     7
100
AcDbCircle
 10
210.499999
 20
153.999997
 30
0.0
 40
2.0
100
AcDbArc
 50
-90.0
 51
0.0
  0
ARC
  5
15D
100
AcDbEntity
  8
1
370
     9
  6
Continuous
 62
     7
100
AcDbCircle
 10
186.499998
 20
153.999997
 30
0.0
 40
2.0
100
AcDbArc
 50
180.0
 51
-90.0
  0
ARC
  5
15E
100
AcDbEntity
  8
1
370
     9
  6
Continuous
 62
     7
100
AcDbCircle
 10
179.0
 20
176.499998
 30
0.0
 40
0.5
100
AcDbArc
 50
180.0
 51
-90.0
  0
ARC
  5
15F
100
AcDbEntity
  8
1
370
     9
  6
Continuous
 62
     7
100
AcDbCircle
 10
177.5
 20
182.999999
 30
0.0
 40
1.0
100
AcDbArc
 50
0.0
 51
90.0
  0
ARC
  5
160
100
AcDbEntity
  8
1
370
     9
  6
Continuous
 62
     7
100
AcDbCircle
 10
177.5
 20
217.0
 30
0.0
 40
1.0
100
AcDbArc
 50
-90.0
 51
0.0
  0
ARC
  5
161
100
AcDbEntity
  8
1
370
     9
  6
Continuous
 62
     7
100
AcDbCircle
 10
179.0
 20
221.499998
 30
0.0
 40
0.5
100
AcDbArc
 50
90.0
 51
180.0
  0
ARC
  5
162
100
AcDbEntity
  8
1
370
     9
  6
Continuous
 62
     7
100
AcDbCircle
 10
176.5
 20
211.049998
 30
0.0
 40
1.0
100
AcDbArc
 50
-90.0
 51
0.0
  0
ARC
  5
163
100
AcDbEntity
  8
1
370
     9
  6
Continuous
 62
     7
100
AcDbCircle
 10
176.5
 20
188.949998
 30
0.0
 40
1.0
100
AcDbArc
 50
0.0
 51
90.0
  0
LINE
  5
164
100
AcDbEntity
  8
1
370
     9
  6
Continuous
 62
     7
100
AcDbLine
 10
212.499999
 20
173.999998
 30
0.0
 11
212.499999
 21
153.999997
 31
0.0
  0
ARC
  5
165
100
AcDbEntity
  8
1
370
     9
  6
Continuous
 62
     7
100
AcDbCircle
 10
214.499999
 20
173.999998
 30
0.0
 40
2.0
100
AcDbArc
 50
90.0
 51
180.0
  0
LINE
  5
166
100
AcDbEntity
  8
1
370
     9
  6
Continuous
 62
     7
100
AcDbLine
 10
184.499998
 20
153.999997
 30
0.0
 11
184.499998
 21
173.999998
 31
0.0
  0
ARC
  5
167
100
AcDbEntity
  8
1
370
     9
  6
Continuous
 62
     7
100
AcDbCircle
 10
182.499998
 20
173.999998
 30
0.0
 40
2.0
100
AcDbArc
 50
0.0
 51
90.0
  0
LINE
  5
168
100
AcDbEntity
  8
1
370
     9
  6
Continuous
 62
     7
100
AcDbLine
 10
222.999999
 20
173.999998
 30
0.0
 11
218.999999
 21
173.999998
 31
0.0
  0
ARC
  5
169
100
AcDbEntity
  8
1
370
     9
  6
Continuous
 62
     7
100
AcDbCircle
 10
222.999999
 20
175.999998
 30
0.0
 40
2.0
100
AcDbArc
 50
-90.0
 51
0.0
  0
LINE
  5
16A
100
AcDbEntity
  8
1
370
     9
  6
Continuous
 62
     7
100
AcDbLine
 10
226.299999
 20
198.999996
 30
0.0
 11
224.999998
 21
197.143403
 31
0.0
  0
LINE
  5
16B
100
AcDbEntity
  8
1
370
     9
  6
Continuous
 62
     7
100
AcDbLine
 10
224.999998
 20
200.856594
 30
0.0
 11
226.299999
 21
198.999996
 31
0.0
  0
ARC
  5
16C
100
AcDbEntity
  8
1
370
     9
  6
Continuous
 62
     7
100
AcDbCircle
 10
224.287492
 20
196.099998
 30
0.0
 40
1.6
100
AcDbArc
 50
-63.556375
 51
-16.191351
  0
ARC
  5
16D
100
AcDbEntity
  8
1
370
     9
  6
Continuous
 62
     7
100
AcDbCircle
 10
224.288715
 20
201.895777
 30
0.0
 40
1.6
100
AcDbArc
 50
16.167143
 51
63.605311
  0
ARC
  5
16E
100
AcDbEntity
  8
1
370
     9
  6
Continuous
 62
     7
100
AcDbCircle
 10
214.3
 20
198.999998
 30
0.0
 40
11.999999
100
AcDbArc
 50
-16.191353
 51
16.16714
  0
LINE
  5
16F
100
AcDbEntity
  8
1
370
     9
  6
Continuous
 62
     7
100
AcDbLine
 10
224.999998
 20
221.999998
 30
0.0
 11
224.999998
 21
175.999998
 31
0.0
  0
LINE
  5
170
100
AcDbEntity
  8
1
370
     9
  6
Continuous
 62
     7
100
AcDbLine
 10
218.999999
 20
223.999998
 30
0.0
 11
222.999999
 21
223.999998
 31
0.0
  0
ARC
  5
171
100
AcDbEntity
  8
1
370
     9
  6
Continuous
 62
     7
100
AcDbCircle
 10
222.999999
 20
221.999998
 30
0.0
 40
2.0
100
AcDbArc
 50
0.0
 51
90.0
  0
LINE
  5
172
100
AcDbEntity
  8
1
370
     9
  6
Continuous
 62
     7
100
AcDbLine
 10
167.600002
 20
214.5
 30
0.0
 11
168.754702
 21
216.5
 31
0.0
  0
LINE
  5
173
100
AcDbEntity
  8
1
370
     9
  6
Continuous
 62
     7
100
AcDbLine
 10
168.754702
 20
183.499999
 30
0.0
 11
167.600002
 21
185.499999
 31
0.0
  0
LINE
  5
174
100
AcDbEntity
  8
1
370
     9
  6
Continuous
 62
     7
100
AcDbLine
 10
170.945301
 20
183.499999
 30
0.0
 11
168.754702
 21
183.499999
 31
0.0
  0
LINE
  5
175
100
AcDbEntity
  8
1
370
     9
  6
Continuous
 62
     7
100
AcDbLine
 10
172.100001
 20
185.499999
 30
0.0
 11
170.945301
 21
183.499999
 31
0.0
  0
LINE
  5
176
100
AcDbEntity
  8
1
370
     9
  6
Continuous
 62
     7
100
AcDbLine
 10
170.945301
 20
216.5
 30
0.0
 11
172.100001
 21
214.5
 31
0.0
  0
LINE
  5
177
100
AcDbEntity
  8
1
370
     9
  6
Continuous
 62
     7
100
AcDbLine
 10
168.754702
 20
216.5
 30
0.0
 11
170.945301
 21
216.5
 31
0.0
  0
ARC
  5
178
100
AcDbEntity
  8
1
370
     9
  6
Continuous
 62
     7
100
AcDbCircle
 10
164.917806
 20
199.999999
 30
0.0
 40
20.0
100
AcDbArc
 50
159.620176
 51
-157.343231
  0
LINE
  5
179
100
AcDbEntity
  8
1
370
     9
  6
Continuous
 62
     7
100
AcDbLine
 10
140.5
 20
164.299999
 30
0.0
 11
141.5
 21
164.299999
 31
0.0
  0
LINE
  5
17A
100
AcDbEntity
  8
1
370
     9
  6
Continuous
 62
     7
100
AcDbLine
 10
140.687825
 20
171.373855
 30
0.0
 11
144.06376
 21
168.001071
 31
0.0
  0
LINE
  5
17B
100
AcDbEntity
  8
1
370
     9
  6
Continuous
 62
     7
100
AcDbLine
 10
140.686244
 20
166.629499
 30
0.0
 11
144.06376
 21
170.000693
 31
0.0
  0
LINE
  5
17C
100
AcDbEntity
  8
1
370
     9
  6
Continuous
 62
     7
100
AcDbLine
 10
140.355359
 20
164.314956
 30
0.0
 11
140.5
 21
164.310493
 31
0.0
  0
LINE
  5
17D
100
AcDbEntity
  8
1
370
     9
  6
Continuous
 62
     7
100
AcDbLine
 10
140.210994
 20
164.328338
 30
0.0
 11
140.355359
 21
164.314956
 31
0.0
  0
LINE
  5
17E
100
AcDbEntity
  8
1
370
     9
  6
Continuous
 62
     7
100
AcDbLine
 10
140.067178
 20
164.350612
 30
0.0
 11
140.210994
 21
164.328338
 31
0.0
  0
LINE
  5
17F
100
AcDbEntity
  8
1
370
     9
  6
Continuous
 62
     7
100
AcDbLine
 10
139.924186
 20
164.381737
 30
0.0
 11
140.067178
 21
164.350612
 31
0.0
  0
LINE
  5
180
100
AcDbEntity
  8
1
370
     9
  6
Continuous
 62
     7
100
AcDbLine
 10
139.782291
 20
164.421653
 30
0.0
 11
139.924186
 21
164.381737
 31
0.0
  0
LINE
  5
181
100
AcDbEntity
  8
1
370
     9
  6
Continuous
 62
     7
100
AcDbLine
 10
139.641761
 20
164.470284
 30
0.0
 11
139.782291
 21
164.421653
 31
0.0
  0
LINE
  5
182
100
AcDbEntity
  8
1
370
     9
  6
Continuous
 62
     7
100
AcDbLine
 10
139.502865
 20
164.527538
 30
0.0
 11
139.641761
 21
164.470284
 31
0.0
  0
LINE
  5
183
100
AcDbEntity
  8
1
370
     9
  6
Continuous
 62
     7
100
AcDbLine
 10
139.365868
 20
164.593305
 30
0.0
 11
139.502865
 21
164.527538
 31
0.0
  0
LINE
  5
184
100
AcDbEntity
  8
1
370
     9
  6
Continuous
 62
     7
100
AcDbLine
 10
139.231029
 20
164.66746
 30
0.0
 11
139.365868
 21
164.593305
 31
0.0
  0
LINE
  5
185
100
AcDbEntity
  8
1
370
     9
  6
Continuous
 62
     7
100
AcDbLine
 10
139.098606
 20
164.749863
 30
0.0
 11
139.231029
 21
164.66746
 31
0.0
  0
LINE
  5
186
100
AcDbEntity
  8
1
370
     9
  6
Continuous
 62
     7
100
AcDbLine
 10
138.96885
 20
164.840356
 30
0.0
 11
139.098606
 21
164.749863
 31
0.0
  0
LINE
  5
187
100
AcDbEntity
  8
1
370
     9
  6
Continuous
 62
     7
100
AcDbLine
 10
138.84201
 20
164.938768
 30
0.0
 11
138.96885
 21
164.840356
 31
0.0
  0
LINE
  5
188
100
AcDbEntity
  8
1
370
     9
  6
Continuous
 62
     7
100
AcDbLine
 10
138.718325
 20
165.04491
 30
0.0
 11
138.84201
 21
164.938768
 31
0.0
  0
LINE
  5
189
100
AcDbEntity
  8
1
370
     9
  6
Continuous
 62
     7
100
AcDbLine
 10
138.598032
 20
165.158581
 30
0.0
 11
138.718325
 21
165.04491
 31
0.0
  0
LINE
  5
18A
100
AcDbEntity
  8
1
370
     9
  6
Continuous
 62
     7
100
AcDbLine
 10
138.481359
 20
165.279564
 30
0.0
 11
138.598032
 21
165.158581
 31
0.0
  0
LINE
  5
18B
100
AcDbEntity
  8
1
370
     9
  6
Continuous
 62
     7
100
AcDbLine
 10
138.368529
 20
165.407629
 30
0.0
 11
138.481359
 21
165.279564
 31
0.0
  0
LINE
  5
18C
100
AcDbEntity
  8
1
370
     9
  6
Continuous
 62
     7
100
AcDbLine
 10
138.259756
 20
165.542533
 30
0.0
 11
138.368529
 21
165.407629
 31
0.0
  0
LINE
  5
18D
100
AcDbEntity
  8
1
370
     9
  6
Continuous
 62
     7
100
AcDbLine
 10
138.155247
 20
165.684018
 30
0.0
 11
138.259756
 21
165.542533
 31
0.0
  0
LINE
  5
18E
100
AcDbEntity
  8
1
370
     9
  6
Continuous
 62
     7
100
AcDbLine
 10
138.055202
 20
165.831815
 30
0.0
 11
138.155247
 21
165.684018
 31
0.0
  0
LINE
  5
18F
100
AcDbEntity
  8
1
370
     9
  6
Continuous
 62
     7
100
AcDbLine
 10
137.959811
 20
165.985643
 30
0.0
 11
138.055202
 21
165.831815
 31
0.0
  0
LINE
  5
190
100
AcDbEntity
  8
1
370
     9
  6
Continuous
 62
     7
100
AcDbLine
 10
137.869255
 20
166.145209
 30
0.0
 11
137.959811
 21
165.985643
 31
0.0
  0
LINE
  5
191
100
AcDbEntity
  8
1
370
     9
  6
Continuous
 62
     7
100
AcDbLine
 10
137.783707
 20
166.310209
 30
0.0
 11
137.869255
 21
166.145209
 31
0.0
  0
LINE
  5
192
100
AcDbEntity
  8
1
370
     9
  6
Continuous
 62
     7
100
AcDbLine
 10
137.70333
 20
166.480329
 30
0.0
 11
137.783707
 21
166.310209
 31
0.0
  0
LINE
  5
193
100
AcDbEntity
  8
1
370
     9
  6
Continuous
 62
     7
100
AcDbLine
 10
137.628276
 20
166.655246
 30
0.0
 11
137.70333
 21
166.480329
 31
0.0
  0
LINE
  5
194
100
AcDbEntity
  8
1
370
     9
  6
Continuous
 62
     7
100
AcDbLine
 10
137.558689
 20
166.834626
 30
0.0
 11
137.628276
 21
166.655246
 31
0.0
  0
LINE
  5
195
100
AcDbEntity
  8
1
370
     9
  6
Continuous
 62
     7
100
AcDbLine
 10
137.494701
 20
167.018128
 30
0.0
 11
137.558689
 21
166.834626
 31
0.0
  0
LINE
  5
196
100
AcDbEntity
  8
1
370
     9
  6
Continuous
 62
     7
100
AcDbLine
 10
137.436433
 20
167.205403
 30
0.0
 11
137.494701
 21
167.018128
 31
0.0
  0
LINE
  5
197
100
AcDbEntity
  8
1
370
     9
  6
Continuous
 62
     7
100
AcDbLine
 10
137.383997
 20
167.396094
 30
0.0
 11
137.436433
 21
167.205403
 31
0.0
  0
LINE
  5
198
100
AcDbEntity
  8
1
370
     9
  6
Continuous
 62
     7
100
AcDbLine
 10
137.337493
 20
167.589838
 30
0.0
 11
137.383997
 21
167.396094
 31
0.0
  0
LINE
  5
199
100
AcDbEntity
  8
1
370
     9
  6
Continuous
 62
     7
100
AcDbLine
 10
137.297008
 20
167.786266
 30
0.0
 11
137.337493
 21
167.589838
 31
0.0
  0
LINE
  5
19A
100
AcDbEntity
  8
1
370
     9
  6
Continuous
 62
     7
100
AcDbLine
 10
137.262621
 20
167.985005
 30
0.0
 11
137.297008
 21
167.786266
 31
0.0
  0
LINE
  5
19B
100
AcDbEntity
  8
1
370
     9
  6
Continuous
 62
     7
100
AcDbLine
 10
137.234396
 20
168.185675
 30
0.0
 11
137.262621
 21
167.985005
 31
0.0
  0
LINE
  5
19C
100
AcDbEntity
  8
1
370
     9
  6
Continuous
 62
     7
100
AcDbLine
 10
137.212388
 20
168.387896
 30
0.0
 11
137.234396
 21
168.185675
 31
0.0
  0
LINE
  5
19D
100
AcDbEntity
  8
1
370
     9
  6
Continuous
 62
     7
100
AcDbLine
 10
137.196637
 20
168.591282
 30
0.0
 11
137.212388
 21
168.387896
 31
0.0
  0
LINE
  5
19E
100
AcDbEntity
  8
1
370
     9
  6
Continuous
 62
     7
100
AcDbLine
 10
137.187175
 20
168.795446
 30
0.0
 11
137.196637
 21
168.591282
 31
0.0
  0
LINE
  5
19F
100
AcDbEntity
  8
1
370
     9
  6
Continuous
 62
     7
100
AcDbLine
 10
137.184019
 20
169.0
 30
0.0
 11
137.187175
 21
168.795446
 31
0.0
  0
LINE
  5
1A0
100
AcDbEntity
  8
1
370
     9
  6
Continuous
 62
     7
100
AcDbLine
 10
137.187175
 20
169.204553
 30
0.0
 11
137.184019
 21
169.0
 31
0.0
  0
LINE
  5
1A1
100
AcDbEntity
  8
1
370
     9
  6
Continuous
 62
     7
100
AcDbLine
 10
137.196637
 20
169.408717
 30
0.0
 11
137.187175
 21
169.204553
 31
0.0
  0
LINE
  5
1A2
100
AcDbEntity
  8
1
370
     9
  6
Continuous
 62
     7
100
AcDbLine
 10
137.212388
 20
169.612103
 30
0.0
 11
137.196637
 21
169.408717
 31
0.0
  0
LINE
  5
1A3
100
AcDbEntity
  8
1
370
     9
  6
Continuous
 62
     7
100
AcDbLine
 10
137.234396
 20
169.814324
 30
0.0
 11
137.212388
 21
169.612103
 31
0.0
  0
LINE
  5
1A4
100
AcDbEntity
  8
1
370
     9
  6
Continuous
 62
     7
100
AcDbLine
 10
137.262621
 20
170.014995
 30
0.0
 11
137.234396
 21
169.814324
 31
0.0
  0
LINE
  5
1A5
100
AcDbEntity
  8
1
370
     9
  6
Continuous
 62
     7
100
AcDbLine
 10
137.297008
 20
170.213733
 30
0.0
 11
137.262621
 21
170.014995
 31
0.0
  0
LINE
  5
1A6
100
AcDbEntity
  8
1
370
     9
  6
Continuous
 62
     7
100
AcDbLine
 10
137.337493
 20
170.410161
 30
0.0
 11
137.297008
 21
170.213733
 31
0.0
  0
LINE
  5
1A7
100
AcDbEntity
  8
1
370
     9
  6
Continuous
 62
     7
100
AcDbLine
 10
137.383997
 20
170.603905
 30
0.0
 11
137.337493
 21
170.410161
 31
0.0
  0
LINE
  5
1A8
100
AcDbEntity
  8
1
370
     9
  6
Continuous
 62
     7
100
AcDbLine
 10
137.436433
 20
170.794596
 30
0.0
 11
137.383997
 21
170.603905
 31
0.0
  0
LINE
  5
1A9
100
AcDbEntity
  8
1
370
     9
  6
Continuous
 62
     7
100
AcDbLine
 10
137.494701
 20
170.981871
 30
0.0
 11
137.436433
 21
170.794596
 31
0.0
  0
LINE
  5
1AA
100
AcDbEntity
  8
1
370
     9
  6
Continuous
 62
     7
100
AcDbLine
 10
137.558689
 20
171.165373
 30
0.0
 11
137.494701
 21
170.981871
 31
0.0
  0
LINE
  5
1AB
100
AcDbEntity
  8
1
370
     9
  6
Continuous
 62
     7
100
AcDbLine
 10
137.628276
 20
171.344753
 30
0.0
 11
137.558689
 21
171.165373
 31
0.0
  0
LINE
  5
1AC
100
AcDbEntity
  8
1
370
     9
  6
Continuous
 62
     7
100
AcDbLine
 10
137.70333
 20
171.51967
 30
0.0
 11
137.628276
 21
171.344753
 31
0.0
  0
LINE
  5
1AD
100
AcDbEntity
  8
1
370
     9
  6
Continuous
 62
     7
100
AcDbLine
 10
137.783707
 20
171.68979
 30
0.0
 11
137.70333
 21
171.51967
 31
0.0
  0
LINE
  5
1AE
100
AcDbEntity
  8
1
370
     9
  6
Continuous
 62
     7
100
AcDbLine
 10
137.869255
 20
171.85479
 30
0.0
 11
137.783707
 21
171.68979
 31
0.0
  0
LINE
  5
1AF
100
AcDbEntity
  8
1
370
     9
  6
Continuous
 62
     7
100
AcDbLine
 10
137.959811
 20
172.014356
 30
0.0
 11
137.869255
 21
171.85479
 31
0.0
  0
LINE
  5
1B0
100
AcDbEntity
  8
1
370
     9
  6
Continuous
 62
     7
100
AcDbLine
 10
138.055202
 20
172.168184
 30
0.0
 11
137.959811
 21
172.014356
 31
0.0
  0
LINE
  5
1B1
100
AcDbEntity
  8
1
370
     9
  6
Continuous
 62
     7
100
AcDbLine
 10
138.155247
 20
172.315982
 30
0.0
 11
138.055202
 21
172.168184
 31
0.0
  0
LINE
  5
1B2
100
AcDbEntity
  8
1
370
     9
  6
Continuous
 62
     7
100
AcDbLine
 10
138.259756
 20
172.457467
 30
0.0
 11
138.155247
 21
172.315982
 31
0.0
  0
LINE
  5
1B3
100
AcDbEntity
  8
1
370
     9
  6
Continuous
 62
     7
100
AcDbLine
 10
138.368529
 20
172.59237
 30
0.0
 11
138.259756
 21
172.457467
 31
0.0
  0
LINE
  5
1B4
100
AcDbEntity
  8
1
370
     9
  6
Continuous
 62
     7
100
AcDbLine
 10
138.481359
 20
172.720435
 30
0.0
 11
138.368529
 21
172.59237
 31
0.0
  0
LINE
  5
1B5
100
AcDbEntity
  8
1
370
     9
  6
Continuous
 62
     7
100
AcDbLine
 10
138.598032
 20
172.841419
 30
0.0
 11
138.481359
 21
172.720435
 31
0.0
  0
LINE
  5
1B6
100
AcDbEntity
  8
1
370
     9
  6
Continuous
 62
     7
100
AcDbLine
 10
138.718325
 20
172.955089
 30
0.0
 11
138.598032
 21
172.841419
 31
0.0
  0
LINE
  5
1B7
100
AcDbEntity
  8
1
370
     9
  6
Continuous
 62
     7
100
AcDbLine
 10
138.84201
 20
173.061232
 30
0.0
 11
138.718325
 21
172.955089
 31
0.0
  0
LINE
  5
1B8
100
AcDbEntity
  8
1
370
     9
  6
Continuous
 62
     7
100
AcDbLine
 10
138.96885
 20
173.159643
 30
0.0
 11
138.84201
 21
173.061232
 31
0.0
  0
LINE
  5
1B9
100
AcDbEntity
  8
1
370
     9
  6
Continuous
 62
     7
100
AcDbLine
 10
139.098606
 20
173.250136
 30
0.0
 11
138.96885
 21
173.159643
 31
0.0
  0
LINE
  5
1BA
100
AcDbEntity
  8
1
370
     9
  6
Continuous
 62
     7
100
AcDbLine
 10
139.231029
 20
173.332539
 30
0.0
 11
139.098606
 21
173.250136
 31
0.0
  0
LINE
  5
1BB
100
AcDbEntity
  8
1
370
     9
  6
Continuous
 62
     7
100
AcDbLine
 10
139.365868
 20
173.406694
 30
0.0
 11
139.231029
 21
173.332539
 31
0.0
  0
LINE
  5
1BC
100
AcDbEntity
  8
1
370
     9
  6
Continuous
 62
     7
100
AcDbLine
 10
139.502865
 20
173.472462
 30
0.0
 11
139.365868
 21
173.406694
 31
0.0
  0
LINE
  5
1BD
100
AcDbEntity
  8
1
370
     9
  6
Continuous
 62
     7
100
AcDbLine
 10
139.641761
 20
173.529715
 30
0.0
 11
139.502865
 21
173.472462
 31
0.0
  0
LINE
  5
1BE
100
AcDbEntity
  8
1
370
     9
  6
Continuous
 62
     7
100
AcDbLine
 10
139.782291
 20
173.578346
 30
0.0
 11
139.641761
 21
173.529715
 31
0.0
  0
LINE
  5
1BF
100
AcDbEntity
  8
1
370
     9
  6
Continuous
 62
     7
100
AcDbLine
 10
139.924186
 20
173.618262
 30
0.0
 11
139.782291
 21
173.578346
 31
0.0
  0
LINE
  5
1C0
100
AcDbEntity
  8
1
370
     9
  6
Continuous
 62
     7
100
AcDbLine
 10
140.067178
 20
173.649387
 30
0.0
 11
139.924186
 21
173.618262
 31
0.0
  0
LINE
  5
1C1
100
AcDbEntity
  8
1
370
     9
  6
Continuous
 62
     7
100
AcDbLine
 10
140.210994
 20
173.671661
 30
0.0
 11
140.067178
 21
173.649387
 31
0.0
  0
LINE
  5
1C2
100
AcDbEntity
  8
1
370
     9
  6
Continuous
 62
     7
100
AcDbLine
 10
140.355359
 20
173.685043
 30
0.0
 11
140.210994
 21
173.671661
 31
0.0
  0
LINE
  5
1C3
100
AcDbEntity
  8
1
370
     9
  6
Continuous
 62
     7
100
AcDbLine
 10
140.5
 20
173.689506
 30
0.0
 11
140.355359
 21
173.685043
 31
0.0
  0
LINE
  5
1C4
100
AcDbEntity
  8
1
370
     9
  6
Continuous
 62
     7
100
AcDbLine
 10
140.5
 20
173.7
 30
0.0
 11
141.5
 21
173.7
 31
0.0
  0
LINE
  5
1C5
100
AcDbEntity
  8
1
370
     9
  6
Continuous
 62
     7
100
AcDbLine
 10
141.789654
 20
173.682115
 30
0.0
 11
141.5
 21
173.7
 31
0.0
  0
LINE
  5
1C6
100
AcDbEntity
  8
1
370
     9
  6
Continuous
 62
     7
100
AcDbLine
 10
142.077103
 20
173.628597
 30
0.0
 11
141.789654
 21
173.682115
 31
0.0
  0
LINE
  5
1C7
100
AcDbEntity
  8
1
370
     9
  6
Continuous
 62
     7
100
AcDbLine
 10
142.36016
 20
173.539852
 30
0.0
 11
142.077103
 21
173.628597
 31
0.0
  0
LINE
  5
1C8
100
AcDbEntity
  8
1
370
     9
  6
Continuous
 62
     7
100
AcDbLine
 10
142.636671
 20
173.416556
 30
0.0
 11
142.36016
 21
173.539852
 31
0.0
  0
LINE
  5
1C9
100
AcDbEntity
  8
1
370
     9
  6
Continuous
 62
     7
100
AcDbLine
 10
142.904531
 20
173.259647
 30
0.0
 11
142.636671
 21
173.416556
 31
0.0
  0
LINE
  5
1CA
100
AcDbEntity
  8
1
370
     9
  6
Continuous
 62
     7
100
AcDbLine
 10
143.161702
 20
173.07032
 30
0.0
 11
142.904531
 21
173.259647
 31
0.0
  0
LINE
  5
1CB
100
AcDbEntity
  8
1
370
     9
  6
Continuous
 62
     7
100
AcDbLine
 10
143.406226
 20
172.850015
 30
0.0
 11
143.161702
 21
173.07032
 31
0.0
  0
LINE
  5
1CC
100
AcDbEntity
  8
1
370
     9
  6
Continuous
 62
     7
100
AcDbLine
 10
143.636242
 20
172.600409
 30
0.0
 11
143.406226
 21
172.850015
 31
0.0
  0
LINE
  5
1CD
100
AcDbEntity
  8
1
370
     9
  6
Continuous
 62
     7
100
AcDbLine
 10
143.850001
 20
172.323402
 30
0.0
 11
143.636242
 21
172.600409
 31
0.0
  0
LINE
  5
1CE
100
AcDbEntity
  8
1
370
     9
  6
Continuous
 62
     7
100
AcDbLine
 10
144.045874
 20
172.021102
 30
0.0
 11
143.850001
 21
172.323402
 31
0.0
  0
LINE
  5
1CF
100
AcDbEntity
  8
1
370
     9
  6
Continuous
 62
     7
100
AcDbLine
 10
144.222372
 20
171.695809
 30
0.0
 11
144.045874
 21
172.021102
 31
0.0
  0
LINE
  5
1D0
100
AcDbEntity
  8
1
370
     9
  6
Continuous
 62
     7
100
AcDbLine
 10
144.378151
 20
171.35
 30
0.0
 11
144.222372
 21
171.695809
 31
0.0
  0
LINE
  5
1D1
100
AcDbEntity
  8
1
370
     9
  6
Continuous
 62
     7
100
AcDbLine
 10
144.512026
 20
170.986306
 30
0.0
 11
144.378151
 21
171.35
 31
0.0
  0
LINE
  5
1D2
100
AcDbEntity
  8
1
370
     9
  6
Continuous
 62
     7
100
AcDbLine
 10
144.622977
 20
170.607495
 30
0.0
 11
144.512026
 21
170.986306
 31
0.0
  0
LINE
  5
1D3
100
AcDbEntity
  8
1
370
     9
  6
Continuous
 62
     7
100
AcDbLine
 10
144.710161
 20
170.216449
 30
0.0
 11
144.622977
 21
170.607495
 31
0.0
  0
LINE
  5
1D4
100
AcDbEntity
  8
1
370
     9
  6
Continuous
 62
     7
100
AcDbLine
 10
144.772913
 20
169.816146
 30
0.0
 11
144.710161
 21
170.216449
 31
0.0
  0
LINE
  5
1D5
100
AcDbEntity
  8
1
370
     9
  6
Continuous
 62
     7
100
AcDbLine
 10
144.810756
 20
169.409632
 30
0.0
 11
144.772913
 21
169.816146
 31
0.0
  0
LINE
  5
1D6
100
AcDbEntity
  8
1
370
     9
  6
Continuous
 62
     7
100
AcDbLine
 10
144.823403
 20
169.0
 30
0.0
 11
144.810756
 21
169.409632
 31
0.0
  0
LINE
  5
1D7
100
AcDbEntity
  8
1
370
     9
  6
Continuous
 62
     7
100
AcDbLine
 10
144.810756
 20
168.590368
 30
0.0
 11
144.823403
 21
169.0
 31
0.0
  0
LINE
  5
1D8
100
AcDbEntity
  8
1
370
     9
  6
Continuous
 62
     7
100
AcDbLine
 10
144.772913
 20
168.183853
 30
0.0
 11
144.810756
 21
168.590368
 31
0.0
  0
LINE
  5
1D9
100
AcDbEntity
  8
1
370
     9
  6
Continuous
 62
     7
100
AcDbLine
 10
144.710161
 20
167.78355
 30
0.0
 11
144.772913
 21
168.183853
 31
0.0
  0
LINE
  5
1DA
100
AcDbEntity
  8
1
370
     9
  6
Continuous
 62
     7
100
AcDbLine
 10
144.622977
 20
167.392505
 30
0.0
 11
144.710161
 21
167.78355
 31
0.0
  0
LINE
  5
1DB
100
AcDbEntity
  8
1
370
     9
  6
Continuous
 62
     7
100
AcDbLine
 10
144.512026
 20
167.013694
 30
0.0
 11
144.622977
 21
167.392505
 31
0.0
  0
LINE
  5
1DC
100
AcDbEntity
  8
1
370
     9
  6
Continuous
 62
     7
100
AcDbLine
 10
144.378151
 20
166.649999
 30
0.0
 11
144.512026
 21
167.013694
 31
0.0
  0
LINE
  5
1DD
100
AcDbEntity
  8
1
370
     9
  6
Continuous
 62
     7
100
AcDbLine
 10
144.222372
 20
166.30419
 30
0.0
 11
144.378151
 21
166.649999
 31
0.0
  0
LINE
  5
1DE
100
AcDbEntity
  8
1
370
     9
  6
Continuous
 62
     7
100
AcDbLine
 10
144.045874
 20
165.978897
 30
0.0
 11
144.222372
 21
166.30419
 31
0.0
  0
LINE
  5
1DF
100
AcDbEntity
  8
1
370
     9
  6
Continuous
 62
     7
100
AcDbLine
 10
143.850001
 20
165.676597
 30
0.0
 11
144.045874
 21
165.978897
 31
0.0
  0
LINE
  5
1E0
100
AcDbEntity
  8
1
370
     9
  6
Continuous
 62
     7
100
AcDbLine
 10
143.636242
 20
165.39959
 30
0.0
 11
143.850001
 21
165.676597
 31
0.0
  0
LINE
  5
1E1
100
AcDbEntity
  8
1
370
     9
  6
Continuous
 62
     7
100
AcDbLine
 10
143.406226
 20
165.149984
 30
0.0
 11
143.636242
 21
165.39959
 31
0.0
  0
LINE
  5
1E2
100
AcDbEntity
  8
1
370
     9
  6
Continuous
 62
     7
100
AcDbLine
 10
143.161702
 20
164.92968
 30
0.0
 11
143.406226
 21
165.149984
 31
0.0
  0
LINE
  5
1E3
100
AcDbEntity
  8
1
370
     9
  6
Continuous
 62
     7
100
AcDbLine
 10
142.904531
 20
164.740352
 30
0.0
 11
143.161702
 21
164.92968
 31
0.0
  0
LINE
  5
1E4
100
AcDbEntity
  8
1
370
     9
  6
Continuous
 62
     7
100
AcDbLine
 10
142.636671
 20
164.583444
 30
0.0
 11
142.904531
 21
164.740352
 31
0.0
  0
LINE
  5
1E5
100
AcDbEntity
  8
1
370
     9
  6
Continuous
 62
     7
100
AcDbLine
 10
142.36016
 20
164.460148
 30
0.0
 11
142.636671
 21
164.583444
 31
0.0
  0
LINE
  5
1E6
100
AcDbEntity
  8
1
370
     9
  6
Continuous
 62
     7
100
AcDbLine
 10
142.077103
 20
164.371403
 30
0.0
 11
142.36016
 21
164.460148
 31
0.0
  0
LINE
  5
1E7
100
AcDbEntity
  8
1
370
     9
  6
Continuous
 62
     7
100
AcDbLine
 10
141.789654
 20
164.317884
 30
0.0
 11
142.077103
 21
164.371403
 31
0.0
  0
LINE
  5
1E8
100
AcDbEntity
  8
1
370
     9
  6
Continuous
 62
     7
100
AcDbLine
 10
141.5
 20
164.299999
 30
0.0
 11
141.789654
 21
164.317884
 31
0.0
  0
LINE
  5
1E9
100
AcDbEntity
  8
1
370
     9
  6
Continuous
 62
     7
100
AcDbLine
 10
141.210347
 20
164.317884
 30
0.0
 11
141.5
 21
164.299999
 31
0.0
  0
LINE
  5
1EA
100
AcDbEntity
  8
1
370
     9
  6
Continuous
 62
     7
100
AcDbLine
 10
140.922897
 20
164.371403
 30
0.0
 11
141.210347
 21
164.317884
 31
0.0
  0
LINE
  5
1EB
100
AcDbEntity
  8
1
370
     9
  6
Continuous
 62
     7
100
AcDbLine
 10
140.63984
 20
164.460148
 30
0.0
 11
140.922897
 21
164.371403
 31
0.0
  0
LINE
  5
1EC
100
AcDbEntity
  8
1
370
     9
  6
Continuous
 62
     7
100
AcDbLine
 10
140.36333
 20
164.583444
 30
0.0
 11
140.63984
 21
164.460148
 31
0.0
  0
LINE
  5
1ED
100
AcDbEntity
  8
1
370
     9
  6
Continuous
 62
     7
100
AcDbLine
 10
140.09547
 20
164.740352
 30
0.0
 11
140.36333
 21
164.583444
 31
0.0
  0
LINE
  5
1EE
100
AcDbEntity
  8
1
370
     9
  6
Continuous
 62
     7
100
AcDbLine
 10
139.838299
 20
164.92968
 30
0.0
 11
140.09547
 21
164.740352
 31
0.0
  0
LINE
  5
1EF
100
AcDbEntity
  8
1
370
     9
  6
Continuous
 62
     7
100
AcDbLine
 10
139.593775
 20
165.149984
 30
0.0
 11
139.838299
 21
164.92968
 31
0.0
  0
LINE
  5
1F0
100
AcDbEntity
  8
1
370
     9
  6
Continuous
 62
     7
100
AcDbLine
 10
139.363758
 20
165.39959
 30
0.0
 11
139.593775
 21
165.149984
 31
0.0
  0
LINE
  5
1F1
100
AcDbEntity
  8
1
370
     9
  6
Continuous
 62
     7
100
AcDbLine
 10
139.15
 20
165.676597
 30
0.0
 11
139.363758
 21
165.39959
 31
0.0
  0
LINE
  5
1F2
100
AcDbEntity
  8
1
370
     9
  6
Continuous
 62
     7
100
AcDbLine
 10
138.954126
 20
165.978897
 30
0.0
 11
139.15
 21
165.676597
 31
0.0
  0
LINE
  5
1F3
100
AcDbEntity
  8
1
370
     9
  6
Continuous
 62
     7
100
AcDbLine
 10
138.777628
 20
166.30419
 30
0.0
 11
138.954126
 21
165.978897
 31
0.0
  0
LINE
  5
1F4
100
AcDbEntity
  8
1
370
     9
  6
Continuous
 62
     7
100
AcDbLine
 10
138.621849
 20
166.649999
 30
0.0
 11
138.777628
 21
166.30419
 31
0.0
  0
LINE
  5
1F5
100
AcDbEntity
  8
1
370
     9
  6
Continuous
 62
     7
100
AcDbLine
 10
138.487975
 20
167.013694
 30
0.0
 11
138.621849
 21
166.649999
 31
0.0
  0
LINE
  5
1F6
100
AcDbEntity
  8
1
370
     9
  6
Continuous
 62
     7
100
AcDbLine
 10
138.377023
 20
167.392505
 30
0.0
 11
138.487975
 21
167.013694
 31
0.0
  0
LINE
  5
1F7
100
AcDbEntity
  8
1
370
     9
  6
Continuous
 62
     7
100
AcDbLine
 10
138.28984
 20
167.78355
 30
0.0
 11
138.377023
 21
167.392505
 31
0.0
  0
LINE
  5
1F8
100
AcDbEntity
  8
1
370
     9
  6
Continuous
 62
     7
100
AcDbLine
 10
138.227088
 20
168.183853
 30
0.0
 11
138.28984
 21
167.78355
 31
0.0
  0
LINE
  5
1F9
100
AcDbEntity
  8
1
370
     9
  6
Continuous
 62
     7
100
AcDbLine
 10
138.189244
 20
168.590368
 30
0.0
 11
138.227088
 21
168.183853
 31
0.0
  0
LINE
  5
1FA
100
AcDbEntity
  8
1
370
     9
  6
Continuous
 62
     7
100
AcDbLine
 10
138.176598
 20
169.0
 30
0.0
 11
138.189244
 21
168.590368
 31
0.0
  0
LINE
  5
1FB
100
AcDbEntity
  8
1
370
     9
  6
Continuous
 62
     7
100
AcDbLine
 10
138.189244
 20
169.409632
 30
0.0
 11
138.176598
 21
169.0
 31
0.0
  0
LINE
  5
1FC
100
AcDbEntity
  8
1
370
     9
  6
Continuous
 62
     7
100
AcDbLine
 10
138.227088
 20
169.816146
 30
0.0
 11
138.189244
 21
169.409632
 31
0.0
  0
LINE
  5
1FD
100
AcDbEntity
  8
1
370
     9
  6
Continuous
 62
     7
100
AcDbLine
 10
138.28984
 20
170.216449
 30
0.0
 11
138.227088
 21
169.816146
 31
0.0
  0
LINE
  5
1FE
100
AcDbEntity
  8
1
370
     9
  6
Continuous
 62
     7
100
AcDbLine
 10
138.377023
 20
170.607495
 30
0.0
 11
138.28984
 21
170.216449
 31
0.0
  0
LINE
  5
1FF
100
AcDbEntity
  8
1
370
     9
  6
Continuous
 62
     7
100
AcDbLine
 10
138.487975
 20
170.986306
 30
0.0
 11
138.377023
 21
170.607495
 31
0.0
  0
LINE
  5
200
100
AcDbEntity
  8
1
370
     9
  6
Continuous
 62
     7
100
AcDbLine
 10
138.621849
 20
171.35
 30
0.0
 11
138.487975
 21
170.986306
 31
0.0
  0
LINE
  5
201
100
AcDbEntity
  8
1
370
     9
  6
Continuous
 62
     7
100
AcDbLine
 10
138.777628
 20
171.695809
 30
0.0
 11
138.621849
 21
171.35
 31
0.0
  0
LINE
  5
202
100
AcDbEntity
  8
1
370
     9
  6
Continuous
 62
     7
100
AcDbLine
 10
138.954126
 20
172.021102
 30
0.0
 11
138.777628
 21
171.695809
 31
0.0
  0
LINE
  5
203
100
AcDbEntity
  8
1
370
     9
  6
Continuous
 62
     7
100
AcDbLine
 10
139.15
 20
172.323402
 30
0.0
 11
138.954126
 21
172.021102
 31
0.0
  0
LINE
  5
204
100
AcDbEntity
  8
1
370
     9
  6
Continuous
 62
     7
100
AcDbLine
 10
139.363758
 20
172.600409
 30
0.0
 11
139.15
 21
172.323402
 31
0.0
  0
LINE
  5
205
100
AcDbEntity
  8
1
370
     9
  6
Continuous
 62
     7
100
AcDbLine
 10
139.593775
 20
172.850015
 30
0.0
 11
139.363758
 21
172.600409
 31
0.0
  0
LINE
  5
206
100
AcDbEntity
  8
1
370
     9
  6
Continuous
 62
     7
100
AcDbLine
 10
139.838299
 20
173.07032
 30
0.0
 11
139.593775
 21
172.850015
 31
0.0
  0
LINE
  5
207
100
AcDbEntity
  8
1
370
     9
  6
Continuous
 62
     7
100
AcDbLine
 10
140.09547
 20
173.259647
 30
0.0
 11
139.838299
 21
173.07032
 31
0.0
  0
LINE
  5
208
100
AcDbEntity
  8
1
370
     9
  6
Continuous
 62
     7
100
AcDbLine
 10
140.36333
 20
173.416556
 30
0.0
 11
140.09547
 21
173.259647
 31
0.0
  0
LINE
  5
209
100
AcDbEntity
  8
1
370
     9
  6
Continuous
 62
     7
100
AcDbLine
 10
140.63984
 20
173.539852
 30
0.0
 11
140.36333
 21
173.416556
 31
0.0
  0
LINE
  5
20A
100
AcDbEntity
  8
1
370
     9
  6
Continuous
 62
     7
100
AcDbLine
 10
140.922897
 20
173.628597
 30
0.0
 11
140.63984
 21
173.539852
 31
0.0
  0
LINE
  5
20B
100
AcDbEntity
  8
1
370
     9
  6
Continuous
 62
     7
100
AcDbLine
 10
141.210347
 20
173.682115
 30
0.0
 11
140.922897
 21
173.628597
 31
0.0
  0
LINE
  5
20C
100
AcDbEntity
  8
1
370
     9
  6
Continuous
 62
     7
100
AcDbLine
 10
141.5
 20
173.7
 30
0.0
 11
141.210347
 21
173.682115
 31
0.0
  0
LINE
  5
20D
100
AcDbEntity
  8
1
370
     9
  6
Continuous
 62
     7
100
AcDbLine
 10
89.312175
 20
171.373855
 30
0.0
 11
85.936241
 21
168.001071
 31
0.0
  0
LINE
  5
20E
100
AcDbEntity
  8
1
370
     9
  6
Continuous
 62
     7
100
AcDbLine
 10
89.313757
 20
166.629499
 30
0.0
 11
85.936241
 21
170.000693
 31
0.0
  0
LINE
  5
20F
100
AcDbEntity
  8
1
370
     9
  6
Continuous
 62
     7
100
AcDbLine
 10
89.5
 20
164.299999
 30
0.0
 11
88.5
 21
164.299999
 31
0.0
  0
LINE
  5
210
100
AcDbEntity
  8
1
370
     9
  6
Continuous
 62
     7
100
AcDbLine
 10
89.644641
 20
173.685043
 30
0.0
 11
89.5
 21
173.689506
 31
0.0
  0
LINE
  5
211
100
AcDbEntity
  8
1
370
     9
  6
Continuous
 62
     7
100
AcDbLine
 10
89.789007
 20
173.671661
 30
0.0
 11
89.644641
 21
173.685043
 31
0.0
  0
LINE
  5
212
100
AcDbEntity
  8
1
370
     9
  6
Continuous
 62
     7
100
AcDbLine
 10
89.932823
 20
173.649387
 30
0.0
 11
89.789007
 21
173.671661
 31
0.0
  0
LINE
  5
213
100
AcDbEntity
  8
1
370
     9
  6
Continuous
 62
     7
100
AcDbLine
 10
90.075814
 20
173.618262
 30
0.0
 11
89.932823
 21
173.649387
 31
0.0
  0
LINE
  5
214
100
AcDbEntity
  8
1
370
     9
  6
Continuous
 62
     7
100
AcDbLine
 10
90.21771
 20
173.578346
 30
0.0
 11
90.075814
 21
173.618262
 31
0.0
  0
LINE
  5
215
100
AcDbEntity
  8
1
370
     9
  6
Continuous
 62
     7
100
AcDbLine
 10
90.358239
 20
173.529715
 30
0.0
 11
90.21771
 21
173.578346
 31
0.0
  0
LINE
  5
216
100
AcDbEntity
  8
1
370
     9
  6
Continuous
 62
     7
100
AcDbLine
 10
90.497135
 20
173.472462
 30
0.0
 11
90.358239
 21
173.529715
 31
0.0
  0
LINE
  5
217
100
AcDbEntity
  8
1
370
     9
  6
Continuous
 62
     7
100
AcDbLine
 10
90.634133
 20
173.406694
 30
0.0
 11
90.497135
 21
173.472462
 31
0.0
  0
LINE
  5
218
100
AcDbEntity
  8
1
370
     9
  6
Continuous
 62
     7
100
AcDbLine
 10
90.768971
 20
173.332539
 30
0.0
 11
90.634133
 21
173.406694
 31
0.0
  0
LINE
  5
219
100
AcDbEntity
  8
1
370
     9
  6
Continuous
 62
     7
100
AcDbLine
 10
90.901395
 20
173.250136
 30
0.0
 11
90.768971
 21
173.332539
 31
0.0
  0
LINE
  5
21A
100
AcDbEntity
  8
1
370
     9
  6
Continuous
 62
     7
100
AcDbLine
 10
91.03115
 20
173.159643
 30
0.0
 11
90.901395
 21
173.250136
 31
0.0
  0
LINE
  5
21B
100
AcDbEntity
  8
1
370
     9
  6
Continuous
 62
     7
100
AcDbLine
 10
91.157991
 20
173.061232
 30
0.0
 11
91.03115
 21
173.159643
 31
0.0
  0
LINE
  5
21C
100
AcDbEntity
  8
1
370
     9
  6
Continuous
 62
     7
100
AcDbLine
 10
91.281676
 20
172.955089
 30
0.0
 11
91.157991
 21
173.061232
 31
0.0
  0
LINE
  5
21D
100
AcDbEntity
  8
1
370
     9
  6
Continuous
 62
     7
100
AcDbLine
 10
91.401969
 20
172.841419
 30
0.0
 11
91.281676
 21
172.955089
 31
0.0
  0
LINE
  5
21E
100
AcDbEntity
  8
1
370
     9
  6
Continuous
 62
     7
100
AcDbLine
 10
91.518642
 20
172.720435
 30
0.0
 11
91.401969
 21
172.841419
 31
0.0
  0
LINE
  5
21F
100
AcDbEntity
  8
1
370
     9
  6
Continuous
 62
     7
100
AcDbLine
 10
91.631472
 20
172.59237
 30
0.0
 11
91.518642
 21
172.720435
 31
0.0
  0
LINE
  5
220
100
AcDbEntity
  8
1
370
     9
  6
Continuous
 62
     7
100
AcDbLine
 10
91.740245
 20
172.457467
 30
0.0
 11
91.631472
 21
172.59237
 31
0.0
  0
LINE
  5
221
100
AcDbEntity
  8
1
370
     9
  6
Continuous
 62
     7
100
AcDbLine
 10
91.844753
 20
172.315982
 30
0.0
 11
91.740245
 21
172.457467
 31
0.0
  0
LINE
  5
222
100
AcDbEntity
  8
1
370
     9
  6
Continuous
 62
     7
100
AcDbLine
 10
91.944798
 20
172.168184
 30
0.0
 11
91.844753
 21
172.315982
 31
0.0
  0
LINE
  5
223
100
AcDbEntity
  8
1
370
     9
  6
Continuous
 62
     7
100
AcDbLine
 10
92.040189
 20
172.014356
 30
0.0
 11
91.944798
 21
172.168184
 31
0.0
  0
LINE
  5
224
100
AcDbEntity
  8
1
370
     9
  6
Continuous
 62
     7
100
AcDbLine
 10
92.130745
 20
171.85479
 30
0.0
 11
92.040189
 21
172.014356
 31
0.0
  0
LINE
  5
225
100
AcDbEntity
  8
1
370
     9
  6
Continuous
 62
     7
100
AcDbLine
 10
92.216293
 20
171.68979
 30
0.0
 11
92.130745
 21
171.85479
 31
0.0
  0
LINE
  5
226
100
AcDbEntity
  8
1
370
     9
  6
Continuous
 62
     7
100
AcDbLine
 10
92.296671
 20
171.51967
 30
0.0
 11
92.216293
 21
171.68979
 31
0.0
  0
LINE
  5
227
100
AcDbEntity
  8
1
370
     9
  6
Continuous
 62
     7
100
AcDbLine
 10
92.371724
 20
171.344753
 30
0.0
 11
92.296671
 21
171.51967
 31
0.0
  0
LINE
  5
228
100
AcDbEntity
  8
1
370
     9
  6
Continuous
 62
     7
100
AcDbLine
 10
92.441312
 20
171.165373
 30
0.0
 11
92.371724
 21
171.344753
 31
0.0
  0
LINE
  5
229
100
AcDbEntity
  8
1
370
     9
  6
Continuous
 62
     7
100
AcDbLine
 10
92.5053
 20
170.981871
 30
0.0
 11
92.441312
 21
171.165373
 31
0.0
  0
LINE
  5
22A
100
AcDbEntity
  8
1
370
     9
  6
Continuous
 62
     7
100
AcDbLine
 10
92.563568
 20
170.794596
 30
0.0
 11
92.5053
 21
170.981871
 31
0.0
  0
LINE
  5
22B
100
AcDbEntity
  8
1
370
     9
  6
Continuous
 62
     7
100
AcDbLine
 10
92.616004
 20
170.603905
 30
0.0
 11
92.563568
 21
170.794596
 31
0.0
  0
LINE
  5
22C
100
AcDbEntity
  8
1
370
     9
  6
Continuous
 62
     7
100
AcDbLine
 10
92.662508
 20
170.410161
 30
0.0
 11
92.616004
 21
170.603905
 31
0.0
  0
LINE
  5
22D
100
AcDbEntity
  8
1
370
     9
  6
Continuous
 62
     7
100
AcDbLine
 10
92.702992
 20
170.213733
 30
0.0
 11
92.662508
 21
170.410161
 31
0.0
  0
LINE
  5
22E
100
AcDbEntity
  8
1
370
     9
  6
Continuous
 62
     7
100
AcDbLine
 10
92.73738
 20
170.014995
 30
0.0
 11
92.702992
 21
170.213733
 31
0.0
  0
LINE
  5
22F
100
AcDbEntity
  8
1
370
     9
  6
Continuous
 62
     7
100
AcDbLine
 10
92.765605
 20
169.814324
 30
0.0
 11
92.73738
 21
170.014995
 31
0.0
  0
LINE
  5
230
100
AcDbEntity
  8
1
370
     9
  6
Continuous
 62
     7
100
AcDbLine
 10
92.787613
 20
169.612103
 30
0.0
 11
92.765605
 21
169.814324
 31
0.0
  0
LINE
  5
231
100
AcDbEntity
  8
1
370
     9
  6
Continuous
 62
     7
100
AcDbLine
 10
92.803363
 20
169.408717
 30
0.0
 11
92.787613
 21
169.612103
 31
0.0
  0
LINE
  5
232
100
AcDbEntity
  8
1
370
     9
  6
Continuous
 62
     7
100
AcDbLine
 10
92.812826
 20
169.204553
 30
0.0
 11
92.803363
 21
169.408717
 31
0.0
  0
LINE
  5
233
100
AcDbEntity
  8
1
370
     9
  6
Continuous
 62
     7
100
AcDbLine
 10
92.815982
 20
169.0
 30
0.0
 11
92.812826
 21
169.204553
 31
0.0
  0
LINE
  5
234
100
AcDbEntity
  8
1
370
     9
  6
Continuous
 62
     7
100
AcDbLine
 10
92.812826
 20
168.795446
 30
0.0
 11
92.815982
 21
169.0
 31
0.0
  0
LINE
  5
235
100
AcDbEntity
  8
1
370
     9
  6
Continuous
 62
     7
100
AcDbLine
 10
92.803363
 20
168.591282
 30
0.0
 11
92.812826
 21
168.795446
 31
0.0
  0
LINE
  5
236
100
AcDbEntity
  8
1
370
     9
  6
Continuous
 62
     7
100
AcDbLine
 10
92.787613
 20
168.387896
 30
0.0
 11
92.803363
 21
168.591282
 31
0.0
  0
LINE
  5
237
100
AcDbEntity
  8
1
370
     9
  6
Continuous
 62
     7
100
AcDbLine
 10
92.765605
 20
168.185675
 30
0.0
 11
92.787613
 21
168.387896
 31
0.0
  0
LINE
  5
238
100
AcDbEntity
  8
1
370
     9
  6
Continuous
 62
     7
100
AcDbLine
 10
92.73738
 20
167.985005
 30
0.0
 11
92.765605
 21
168.185675
 31
0.0
  0
LINE
  5
239
100
AcDbEntity
  8
1
370
     9
  6
Continuous
 62
     7
100
AcDbLine
 10
92.702992
 20
167.786266
 30
0.0
 11
92.73738
 21
167.985005
 31
0.0
  0
LINE
  5
23A
100
AcDbEntity
  8
1
370
     9
  6
Continuous
 62
     7
100
AcDbLine
 10
92.662508
 20
167.589838
 30
0.0
 11
92.702992
 21
167.786266
 31
0.0
  0
LINE
  5
23B
100
AcDbEntity
  8
1
370
     9
  6
Continuous
 62
     7
100
AcDbLine
 10
92.616004
 20
167.396094
 30
0.0
 11
92.662508
 21
167.589838
 31
0.0
  0
LINE
  5
23C
100
AcDbEntity
  8
1
370
     9
  6
Continuous
 62
     7
100
AcDbLine
 10
92.563568
 20
167.205403
 30
0.0
 11
92.616004
 21
167.396094
 31
0.0
  0
LINE
  5
23D
100
AcDbEntity
  8
1
370
     9
  6
Continuous
 62
     7
100
AcDbLine
 10
92.5053
 20
167.018128
 30
0.0
 11
92.563568
 21
167.205403
 31
0.0
  0
LINE
  5
23E
100
AcDbEntity
  8
1
370
     9
  6
Continuous
 62
     7
100
AcDbLine
 10
92.441312
 20
166.834626
 30
0.0
 11
92.5053
 21
167.018128
 31
0.0
  0
LINE
  5
23F
100
AcDbEntity
  8
1
370
     9
  6
Continuous
 62
     7
100
AcDbLine
 10
92.371724
 20
166.655246
 30
0.0
 11
92.441312
 21
166.834626
 31
0.0
  0
LINE
  5
240
100
AcDbEntity
  8
1
370
     9
  6
Continuous
 62
     7
100
AcDbLine
 10
92.296671
 20
166.480329
 30
0.0
 11
92.371724
 21
166.655246
 31
0.0
  0
LINE
  5
241
100
AcDbEntity
  8
1
370
     9
  6
Continuous
 62
     7
100
AcDbLine
 10
92.216293
 20
166.310209
 30
0.0
 11
92.296671
 21
166.480329
 31
0.0
  0
LINE
  5
242
100
AcDbEntity
  8
1
370
     9
  6
Continuous
 62
     7
100
AcDbLine
 10
92.130745
 20
166.145209
 30
0.0
 11
92.216293
 21
166.310209
 31
0.0
  0
LINE
  5
243
100
AcDbEntity
  8
1
370
     9
  6
Continuous
 62
     7
100
AcDbLine
 10
92.040189
 20
165.985643
 30
0.0
 11
92.130745
 21
166.145209
 31
0.0
  0
LINE
  5
244
100
AcDbEntity
  8
1
370
     9
  6
Continuous
 62
     7
100
AcDbLine
 10
91.944798
 20
165.831815
 30
0.0
 11
92.040189
 21
165.985643
 31
0.0
  0
LINE
  5
245
100
AcDbEntity
  8
1
370
     9
  6
Continuous
 62
     7
100
AcDbLine
 10
91.844753
 20
165.684018
 30
0.0
 11
91.944798
 21
165.831815
 31
0.0
  0
LINE
  5
246
100
AcDbEntity
  8
1
370
     9
  6
Continuous
 62
     7
100
AcDbLine
 10
91.740245
 20
165.542533
 30
0.0
 11
91.844753
 21
165.684018
 31
0.0
  0
LINE
  5
247
100
AcDbEntity
  8
1
370
     9
  6
Continuous
 62
     7
100
AcDbLine
 10
91.631472
 20
165.407629
 30
0.0
 11
91.740245
 21
165.542533
 31
0.0
  0
LINE
  5
248
100
AcDbEntity
  8
1
370
     9
  6
Continuous
 62
     7
100
AcDbLine
 10
91.518642
 20
165.279564
 30
0.0
 11
91.631472
 21
165.407629
 31
0.0
  0
LINE
  5
249
100
AcDbEntity
  8
1
370
     9
  6
Continuous
 62
     7
100
AcDbLine
 10
91.401969
 20
165.158581
 30
0.0
 11
91.518642
 21
165.279564
 31
0.0
  0
LINE
  5
24A
100
AcDbEntity
  8
1
370
     9
  6
Continuous
 62
     7
100
AcDbLine
 10
91.281676
 20
165.04491
 30
0.0
 11
91.401969
 21
165.158581
 31
0.0
  0
LINE
  5
24B
100
AcDbEntity
  8
1
370
     9
  6
Continuous
 62
     7
100
AcDbLine
 10
91.157991
 20
164.938768
 30
0.0
 11
91.281676
 21
165.04491
 31
0.0
  0
LINE
  5
24C
100
AcDbEntity
  8
1
370
     9
  6
Continuous
 62
     7
100
AcDbLine
 10
91.03115
 20
164.840356
 30
0.0
 11
91.157991
 21
164.938768
 31
0.0
  0
LINE
  5
24D
100
AcDbEntity
  8
1
370
     9
  6
Continuous
 62
     7
100
AcDbLine
 10
90.901395
 20
164.749863
 30
0.0
 11
91.03115
 21
164.840356
 31
0.0
  0
LINE
  5
24E
100
AcDbEntity
  8
1
370
     9
  6
Continuous
 62
     7
100
AcDbLine
 10
90.768971
 20
164.66746
 30
0.0
 11
90.901395
 21
164.749863
 31
0.0
  0
LINE
  5
24F
100
AcDbEntity
  8
1
370
     9
  6
Continuous
 62
     7
100
AcDbLine
 10
90.634133
 20
164.593305
 30
0.0
 11
90.768971
 21
164.66746
 31
0.0
  0
LINE
  5
250
100
AcDbEntity
  8
1
370
     9
  6
Continuous
 62
     7
100
AcDbLine
 10
90.497135
 20
164.527538
 30
0.0
 11
90.634133
 21
164.593305
 31
0.0
  0
LINE
  5
251
100
AcDbEntity
  8
1
370
     9
  6
Continuous
 62
     7
100
AcDbLine
 10
90.358239
 20
164.470284
 30
0.0
 11
90.497135
 21
164.527538
 31
0.0
  0
LINE
  5
252
100
AcDbEntity
  8
1
370
     9
  6
Continuous
 62
     7
100
AcDbLine
 10
90.21771
 20
164.421653
 30
0.0
 11
90.358239
 21
164.470284
 31
0.0
  0
LINE
  5
253
100
AcDbEntity
  8
1
370
     9
  6
Continuous
 62
     7
100
AcDbLine
 10
90.075814
 20
164.381737
 30
0.0
 11
90.21771
 21
164.421653
 31
0.0
  0
LINE
  5
254
100
AcDbEntity
  8
1
370
     9
  6
Continuous
 62
     7
100
AcDbLine
 10
89.932823
 20
164.350612
 30
0.0
 11
90.075814
 21
164.381737
 31
0.0
  0
LINE
  5
255
100
AcDbEntity
  8
1
370
     9
  6
Continuous
 62
     7
100
AcDbLine
 10
89.789007
 20
164.328338
 30
0.0
 11
89.932823
 21
164.350612
 31
0.0
  0
LINE
  5
256
100
AcDbEntity
  8
1
370
     9
  6
Continuous
 62
     7
100
AcDbLine
 10
89.644641
 20
164.314956
 30
0.0
 11
89.789007
 21
164.328338
 31
0.0
  0
LINE
  5
257
100
AcDbEntity
  8
1
370
     9
  6
Continuous
 62
     7
100
AcDbLine
 10
89.5
 20
164.310493
 30
0.0
 11
89.644641
 21
164.314956
 31
0.0
  0
LINE
  5
258
100
AcDbEntity
  8
1
370
     9
  6
Continuous
 62
     7
100
AcDbLine
 10
89.5
 20
173.7
 30
0.0
 11
88.5
 21
173.7
 31
0.0
  0
LINE
  5
259
100
AcDbEntity
  8
1
370
     9
  6
Continuous
 62
     7
100
AcDbLine
 10
88.789654
 20
173.682115
 30
0.0
 11
88.5
 21
173.7
 31
0.0
  0
LINE
  5
25A
100
AcDbEntity
  8
1
370
     9
  6
Continuous
 62
     7
100
AcDbLine
 10
89.077103
 20
173.628597
 30
0.0
 11
88.789654
 21
173.682115
 31
0.0
  0
LINE
  5
25B
100
AcDbEntity
  8
1
370
     9
  6
Continuous
 62
     7
100
AcDbLine
 10
89.36016
 20
173.539852
 30
0.0
 11
89.077103
 21
173.628597
 31
0.0
  0
LINE
  5
25C
100
AcDbEntity
  8
1
370
     9
  6
Continuous
 62
     7
100
AcDbLine
 10
89.636671
 20
173.416556
 30
0.0
 11
89.36016
 21
173.539852
 31
0.0
  0
LINE
  5
25D
100
AcDbEntity
  8
1
370
     9
  6
Continuous
 62
     7
100
AcDbLine
 10
89.904531
 20
173.259647
 30
0.0
 11
89.636671
 21
173.416556
 31
0.0
  0
LINE
  5
25E
100
AcDbEntity
  8
1
370
     9
  6
Continuous
 62
     7
100
AcDbLine
 10
90.161702
 20
173.07032
 30
0.0
 11
89.904531
 21
173.259647
 31
0.0
  0
LINE
  5
25F
100
AcDbEntity
  8
1
370
     9
  6
Continuous
 62
     7
100
AcDbLine
 10
90.406226
 20
172.850015
 30
0.0
 11
90.161702
 21
173.07032
 31
0.0
  0
LINE
  5
260
100
AcDbEntity
  8
1
370
     9
  6
Continuous
 62
     7
100
AcDbLine
 10
90.636242
 20
172.600409
 30
0.0
 11
90.406226
 21
172.850015
 31
0.0
  0
LINE
  5
261
100
AcDbEntity
  8
1
370
     9
  6
Continuous
 62
     7
100
AcDbLine
 10
90.850001
 20
172.323402
 30
0.0
 11
90.636242
 21
172.600409
 31
0.0
  0
LINE
  5
262
100
AcDbEntity
  8
1
370
     9
  6
Continuous
 62
     7
100
AcDbLine
 10
91.045874
 20
172.021102
 30
0.0
 11
90.850001
 21
172.323402
 31
0.0
  0
LINE
  5
263
100
AcDbEntity
  8
1
370
     9
  6
Continuous
 62
     7
100
AcDbLine
 10
91.222372
 20
171.695809
 30
0.0
 11
91.045874
 21
172.021102
 31
0.0
  0
LINE
  5
264
100
AcDbEntity
  8
1
370
     9
  6
Continuous
 62
     7
100
AcDbLine
 10
91.378151
 20
171.35
 30
0.0
 11
91.222372
 21
171.695809
 31
0.0
  0
LINE
  5
265
100
AcDbEntity
  8
1
370
     9
  6
Continuous
 62
     7
100
AcDbLine
 10
91.512026
 20
170.986306
 30
0.0
 11
91.378151
 21
171.35
 31
0.0
  0
LINE
  5
266
100
AcDbEntity
  8
1
370
     9
  6
Continuous
 62
     7
100
AcDbLine
 10
91.622977
 20
170.607495
 30
0.0
 11
91.512026
 21
170.986306
 31
0.0
  0
LINE
  5
267
100
AcDbEntity
  8
1
370
     9
  6
Continuous
 62
     7
100
AcDbLine
 10
91.710161
 20
170.216449
 30
0.0
 11
91.622977
 21
170.607495
 31
0.0
  0
LINE
  5
268
100
AcDbEntity
  8
1
370
     9
  6
Continuous
 62
     7
100
AcDbLine
 10
91.772913
 20
169.816146
 30
0.0
 11
91.710161
 21
170.216449
 31
0.0
  0
LINE
  5
269
100
AcDbEntity
  8
1
370
     9
  6
Continuous
 62
     7
100
AcDbLine
 10
91.810756
 20
169.409632
 30
0.0
 11
91.772913
 21
169.816146
 31
0.0
  0
LINE
  5
26A
100
AcDbEntity
  8
1
370
     9
  6
Continuous
 62
     7
100
AcDbLine
 10
91.823403
 20
169.0
 30
0.0
 11
91.810756
 21
169.409632
 31
0.0
  0
LINE
  5
26B
100
AcDbEntity
  8
1
370
     9
  6
Continuous
 62
     7
100
AcDbLine
 10
91.810756
 20
168.590368
 30
0.0
 11
91.823403
 21
169.0
 31
0.0
  0
LINE
  5
26C
100
AcDbEntity
  8
1
370
     9
  6
Continuous
 62
     7
100
AcDbLine
 10
91.772913
 20
168.183853
 30
0.0
 11
91.810756
 21
168.590368
 31
0.0
  0
LINE
  5
26D
100
AcDbEntity
  8
1
370
     9
  6
Continuous
 62
     7
100
AcDbLine
 10
91.710161
 20
167.78355
 30
0.0
 11
91.772913
 21
168.183853
 31
0.0
  0
LINE
  5
26E
100
AcDbEntity
  8
1
370
     9
  6
Continuous
 62
     7
100
AcDbLine
 10
91.622977
 20
167.392505
 30
0.0
 11
91.710161
 21
167.78355
 31
0.0
  0
LINE
  5
26F
100
AcDbEntity
  8
1
370
     9
  6
Continuous
 62
     7
100
AcDbLine
 10
91.512026
 20
167.013694
 30
0.0
 11
91.622977
 21
167.392505
 31
0.0
  0
LINE
  5
270
100
AcDbEntity
  8
1
370
     9
  6
Continuous
 62
     7
100
AcDbLine
 10
91.378151
 20
166.649999
 30
0.0
 11
91.512026
 21
167.013694
 31
0.0
  0
LINE
  5
271
100
AcDbEntity
  8
1
370
     9
  6
Continuous
 62
     7
100
AcDbLine
 10
91.222372
 20
166.30419
 30
0.0
 11
91.378151
 21
166.649999
 31
0.0
  0
LINE
  5
272
100
AcDbEntity
  8
1
370
     9
  6
Continuous
 62
     7
100
AcDbLine
 10
91.045874
 20
165.978897
 30
0.0
 11
91.222372
 21
166.30419
 31
0.0
  0
LINE
  5
273
100
AcDbEntity
  8
1
370
     9
  6
Continuous
 62
     7
100
AcDbLine
 10
90.850001
 20
165.676597
 30
0.0
 11
91.045874
 21
165.978897
 31
0.0
  0
LINE
  5
274
100
AcDbEntity
  8
1
370
     9
  6
Continuous
 62
     7
100
AcDbLine
 10
90.636242
 20
165.39959
 30
0.0
 11
90.850001
 21
165.676597
 31
0.0
  0
LINE
  5
275
100
AcDbEntity
  8
1
370
     9
  6
Continuous
 62
     7
100
AcDbLine
 10
90.406226
 20
165.149984
 30
0.0
 11
90.636242
 21
165.39959
 31
0.0
  0
LINE
  5
276
100
AcDbEntity
  8
1
370
     9
  6
Continuous
 62
     7
100
AcDbLine
 10
90.161702
 20
164.92968
 30
0.0
 11
90.406226
 21
165.149984
 31
0.0
  0
LINE
  5
277
100
AcDbEntity
  8
1
370
     9
  6
Continuous
 62
     7
100
AcDbLine
 10
89.904531
 20
164.740352
 30
0.0
 11
90.161702
 21
164.92968
 31
0.0
  0
LINE
  5
278
100
AcDbEntity
  8
1
370
     9
  6
Continuous
 62
     7
100
AcDbLine
 10
89.636671
 20
164.583444
 30
0.0
 11
89.904531
 21
164.740352
 31
0.0
  0
LINE
  5
279
100
AcDbEntity
  8
1
370
     9
  6
Continuous
 62
     7
100
AcDbLine
 10
89.36016
 20
164.460148
 30
0.0
 11
89.636671
 21
164.583444
 31
0.0
  0
LINE
  5
27A
100
AcDbEntity
  8
1
370
     9
  6
Continuous
 62
     7
100
AcDbLine
 10
89.077103
 20
164.371403
 30
0.0
 11
89.36016
 21
164.460148
 31
0.0
  0
LINE
  5
27B
100
AcDbEntity
  8
1
370
     9
  6
Continuous
 62
     7
100
AcDbLine
 10
88.789654
 20
164.317884
 30
0.0
 11
89.077103
 21
164.371403
 31
0.0
  0
LINE
  5
27C
100
AcDbEntity
  8
1
370
     9
  6
Continuous
 62
     7
100
AcDbLine
 10
88.5
 20
164.299999
 30
0.0
 11
88.789654
 21
164.317884
 31
0.0
  0
LINE
  5
27D
100
AcDbEntity
  8
1
370
     9
  6
Continuous
 62
     7
100
AcDbLine
 10
88.210347
 20
164.317884
 30
0.0
 11
88.5
 21
164.299999
 31
0.0
  0
LINE
  5
27E
100
AcDbEntity
  8
1
370
     9
  6
Continuous
 62
     7
100
AcDbLine
 10
87.922898
 20
164.371403
 30
0.0
 11
88.210347
 21
164.317884
 31
0.0
  0
LINE
  5
27F
100
AcDbEntity
  8
1
370
     9
  6
Continuous
 62
     7
100
AcDbLine
 10
87.63984
 20
164.460148
 30
0.0
 11
87.922898
 21
164.371403
 31
0.0
  0
LINE
  5
280
100
AcDbEntity
  8
1
370
     9
  6
Continuous
 62
     7
100
AcDbLine
 10
87.36333
 20
164.583444
 30
0.0
 11
87.63984
 21
164.460148
 31
0.0
  0
LINE
  5
281
100
AcDbEntity
  8
1
370
     9
  6
Continuous
 62
     7
100
AcDbLine
 10
87.09547
 20
164.740352
 30
0.0
 11
87.36333
 21
164.583444
 31
0.0
  0
LINE
  5
282
100
AcDbEntity
  8
1
370
     9
  6
Continuous
 62
     7
100
AcDbLine
 10
86.838299
 20
164.92968
 30
0.0
 11
87.09547
 21
164.740352
 31
0.0
  0
LINE
  5
283
100
AcDbEntity
  8
1
370
     9
  6
Continuous
 62
     7
100
AcDbLine
 10
86.593775
 20
165.149984
 30
0.0
 11
86.838299
 21
164.92968
 31
0.0
  0
LINE
  5
284
100
AcDbEntity
  8
1
370
     9
  6
Continuous
 62
     7
100
AcDbLine
 10
86.363758
 20
165.39959
 30
0.0
 11
86.593775
 21
165.149984
 31
0.0
  0
LINE
  5
285
100
AcDbEntity
  8
1
370
     9
  6
Continuous
 62
     7
100
AcDbLine
 10
86.15
 20
165.676597
 30
0.0
 11
86.363758
 21
165.39959
 31
0.0
  0
LINE
  5
286
100
AcDbEntity
  8
1
370
     9
  6
Continuous
 62
     7
100
AcDbLine
 10
85.954126
 20
165.978897
 30
0.0
 11
86.15
 21
165.676597
 31
0.0
  0
LINE
  5
287
100
AcDbEntity
  8
1
370
     9
  6
Continuous
 62
     7
100
AcDbLine
 10
85.777628
 20
166.30419
 30
0.0
 11
85.954126
 21
165.978897
 31
0.0
  0
LINE
  5
288
100
AcDbEntity
  8
1
370
     9
  6
Continuous
 62
     7
100
AcDbLine
 10
85.621849
 20
166.649999
 30
0.0
 11
85.777628
 21
166.30419
 31
0.0
  0
LINE
  5
289
100
AcDbEntity
  8
1
370
     9
  6
Continuous
 62
     7
100
AcDbLine
 10
85.487975
 20
167.013694
 30
0.0
 11
85.621849
 21
166.649999
 31
0.0
  0
LINE
  5
28A
100
AcDbEntity
  8
1
370
     9
  6
Continuous
 62
     7
100
AcDbLine
 10
85.377024
 20
167.392505
 30
0.0
 11
85.487975
 21
167.013694
 31
0.0
  0
LINE
  5
28B
100
AcDbEntity
  8
1
370
     9
  6
Continuous
 62
     7
100
AcDbLine
 10
85.28984
 20
167.78355
 30
0.0
 11
85.377024
 21
167.392505
 31
0.0
  0
LINE
  5
28C
100
AcDbEntity
  8
1
370
     9
  6
Continuous
 62
     7
100
AcDbLine
 10
85.227088
 20
168.183853
 30
0.0
 11
85.28984
 21
167.78355
 31
0.0
  0
LINE
  5
28D
100
AcDbEntity
  8
1
370
     9
  6
Continuous
 62
     7
100
AcDbLine
 10
85.189244
 20
168.590368
 30
0.0
 11
85.227088
 21
168.183853
 31
0.0
  0
LINE
  5
28E
100
AcDbEntity
  8
1
370
     9
  6
Continuous
 62
     7
100
AcDbLine
 10
85.176598
 20
169.0
 30
0.0
 11
85.189244
 21
168.590368
 31
0.0
  0
LINE
  5
28F
100
AcDbEntity
  8
1
370
     9
  6
Continuous
 62
     7
100
AcDbLine
 10
85.189244
 20
169.409632
 30
0.0
 11
85.176598
 21
169.0
 31
0.0
  0
LINE
  5
290
100
AcDbEntity
  8
1
370
     9
  6
Continuous
 62
     7
100
AcDbLine
 10
85.227088
 20
169.816146
 30
0.0
 11
85.189244
 21
169.409632
 31
0.0
  0
LINE
  5
291
100
AcDbEntity
  8
1
370
     9
  6
Continuous
 62
     7
100
AcDbLine
 10
85.28984
 20
170.216449
 30
0.0
 11
85.227088
 21
169.816146
 31
0.0
  0
LINE
  5
292
100
AcDbEntity
  8
1
370
     9
  6
Continuous
 62
     7
100
AcDbLine
 10
85.377024
 20
170.607495
 30
0.0
 11
85.28984
 21
170.216449
 31
0.0
  0
LINE
  5
293
100
AcDbEntity
  8
1
370
     9
  6
Continuous
 62
     7
100
AcDbLine
 10
85.487975
 20
170.986306
 30
0.0
 11
85.377024
 21
170.607495
 31
0.0
  0
LINE
  5
294
100
AcDbEntity
  8
1
370
     9
  6
Continuous
 62
     7
100
AcDbLine
 10
85.621849
 20
171.35
 30
0.0
 11
85.487975
 21
170.986306
 31
0.0
  0
LINE
  5
295
100
AcDbEntity
  8
1
370
     9
  6
Continuous
 62
     7
100
AcDbLine
 10
85.777628
 20
171.695809
 30
0.0
 11
85.621849
 21
171.35
 31
0.0
  0
LINE
  5
296
100
AcDbEntity
  8
1
370
     9
  6
Continuous
 62
     7
100
AcDbLine
 10
85.954126
 20
172.021102
 30
0.0
 11
85.777628
 21
171.695809
 31
0.0
  0
LINE
  5
297
100
AcDbEntity
  8
1
370
     9
  6
Continuous
 62
     7
100
AcDbLine
 10
86.15
 20
172.323402
 30
0.0
 11
85.954126
 21
172.021102
 31
0.0
  0
LINE
  5
298
100
AcDbEntity
  8
1
370
     9
  6
Continuous
 62
     7
100
AcDbLine
 10
86.363758
 20
172.600409
 30
0.0
 11
86.15
 21
172.323402
 31
0.0
  0
LINE
  5
299
100
AcDbEntity
  8
1
370
     9
  6
Continuous
 62
     7
100
AcDbLine
 10
86.593775
 20
172.850015
 30
0.0
 11
86.363758
 21
172.600409
 31
0.0
  0
LINE
  5
29A
100
AcDbEntity
  8
1
370
     9
  6
Continuous
 62
     7
100
AcDbLine
 10
86.838299
 20
173.07032
 30
0.0
 11
86.593775
 21
172.850015
 31
0.0
  0
LINE
  5
29B
100
AcDbEntity
  8
1
370
     9
  6
Continuous
 62
     7
100
AcDbLine
 10
87.09547
 20
173.259647
 30
0.0
 11
86.838299
 21
173.07032
 31
0.0
  0
LINE
  5
29C
100
AcDbEntity
  8
1
370
     9
  6
Continuous
 62
     7
100
AcDbLine
 10
87.36333
 20
173.416556
 30
0.0
 11
87.09547
 21
173.259647
 31
0.0
  0
LINE
  5
29D
100
AcDbEntity
  8
1
370
     9
  6
Continuous
 62
     7
100
AcDbLine
 10
87.63984
 20
173.539852
 30
0.0
 11
87.36333
 21
173.416556
 31
0.0
  0
LINE
  5
29E
100
AcDbEntity
  8
1
370
     9
  6
Continuous
 62
     7
100
AcDbLine
 10
87.922898
 20
173.628597
 30
0.0
 11
87.63984
 21
173.539852
 31
0.0
  0
LINE
  5
29F
100
AcDbEntity
  8
1
370
     9
  6
Continuous
 62
     7
100
AcDbLine
 10
88.210347
 20
173.682115
 30
0.0
 11
87.922898
 21
173.628597
 31
0.0
  0
LINE
  5
2A0
100
AcDbEntity
  8
1
370
     9
  6
Continuous
 62
     7
100
AcDbLine
 10
88.5
 20
173.7
 30
0.0
 11
88.210347
 21
173.682115
 31
0.0
  0
ARC
  5
2A1
100
AcDbEntity
  8
1
370
     9
  6
Continuous
 62
     7
100
AcDbCircle
 10
91.861071
 20
135.000008
 30
0.0
 40
16.861072
100
AcDbArc
 50
161.016556
 51
-161.016491
  0
LINE
  5
2A2
100
AcDbEntity
  8
1
370
     9
  6
Continuous
 62
     7
100
AcDbLine
 10
123.472523
 20
129.515173
 30
0.0
 11
75.917035
 21
129.515169
 31
0.0
  0
LINE
  5
2A3
100
AcDbEntity
  8
1
370
     9
  6
Continuous
 62
     7
100
AcDbLine
 10
116.530346
 20
124.030347
 30
0.0
 11
75.83407
 21
124.030347
 31
0.0
  0
LINE
  5
2A4
100
AcDbEntity
  8
1
370
     9
  6
Continuous
 62
     7
100
AcDbLine
 10
107.668564
 20
140.484826
 30
0.0
 11
75.917029
 21
140.484829
 31
0.0
  0
LINE
  5
2A5
100
AcDbEntity
  8
1
370
     9
  6
Continuous
 62
     7
100
AcDbLine
 10
90.0
 20
145.969657
 30
0.0
 11
75.834071
 21
145.969654
 31
0.0
  0
ARC
  5
2A6
100
AcDbEntity
  8
1
370
     9
  6
Continuous
 62
     7
100
AcDbCircle
 10
79.403312
 20
126.824866
 30
0.0
 40
4.403621
100
AcDbArc
 50
142.343208
 51
-140.609982
  0
LINE
  5
2A7
100
AcDbEntity
  8
1
370
     9
  6
Continuous
 62
     7
100
AcDbLine
 10
75.0
 20
125.475
 30
0.0
 11
75.834071
 21
124.030343
 31
0.0
  0
ARC
  5
2A8
100
AcDbEntity
  8
1
370
     9
  6
Continuous
 62
     7
100
AcDbCircle
 10
79.403323
 20
143.175132
 30
0.0
 40
4.403632
100
AcDbArc
 50
140.610034
 51
-142.343257
  0
LINE
  5
2A9
100
AcDbEntity
  8
1
370
     9
  6
Continuous
 62
     7
100
AcDbLine
 10
75.0
 20
144.524999
 30
0.0
 11
75.0
 21
125.475
 31
0.0
  0
LINE
  5
2AA
100
AcDbEntity
  8
1
370
     9
  6
Continuous
 62
     7
100
AcDbLine
 10
75.834071
 20
145.969654
 30
0.0
 11
75.0
 21
144.524999
 31
0.0
  0
LINE
  5
2AB
100
AcDbEntity
  8
1
370
     9
  6
Continuous
 62
     7
100
AcDbLine
 10
62.024998
 20
125.475
 30
0.0
 11
75.0
 21
125.475
 31
0.0
  0
LINE
  5
2AC
100
AcDbEntity
  8
1
370
     9
  6
Continuous
 62
     7
100
AcDbLine
 10
60.499999
 20
126.999999
 30
0.0
 11
62.024998
 21
125.475
 31
0.0
  0
LINE
  5
2AD
100
AcDbEntity
  8
1
370
     9
  6
Continuous
 62
     7
100
AcDbLine
 10
57.499999
 20
126.999999
 30
0.0
 11
60.499999
 21
126.999999
 31
0.0
  0
LINE
  5
2AE
100
AcDbEntity
  8
1
370
     9
  6
Continuous
 62
     7
100
AcDbLine
 10
54.999999
 20
129.499999
 30
0.0
 11
57.499999
 21
126.999999
 31
0.0
  0
LINE
  5
2AF
100
AcDbEntity
  8
1
370
     9
  6
Continuous
 62
     7
100
AcDbLine
 10
62.024998
 20
144.524999
 30
0.0
 11
75.0
 21
144.524999
 31
0.0
  0
LINE
  5
2B0
100
AcDbEntity
  8
1
370
     9
  6
Continuous
 62
     7
100
AcDbLine
 10
60.499999
 20
143.0
 30
0.0
 11
62.024998
 21
144.524999
 31
0.0
  0
LINE
  5
2B1
100
AcDbEntity
  8
1
370
     9
  6
Continuous
 62
     7
100
AcDbLine
 10
72.0
 20
125.475
 30
0.0
 11
72.0
 21
144.524999
 31
0.0
  0
LINE
  5
2B2
100
AcDbEntity
  8
1
370
     9
  6
Continuous
 62
     7
100
AcDbLine
 10
62.024998
 20
144.524999
 30
0.0
 11
62.024998
 21
125.475
 31
0.0
  0
LINE
  5
2B3
100
AcDbEntity
  8
1
370
     9
  6
Continuous
 62
     7
100
AcDbLine
 10
60.499999
 20
143.0
 30
0.0
 11
60.499999
 21
126.999999
 31
0.0
  0
LINE
  5
2B4
100
AcDbEntity
  8
1
370
     9
  6
Continuous
 62
     7
100
AcDbLine
 10
57.499999
 20
143.0
 30
0.0
 11
57.499999
 21
126.999999
 31
0.0
  0
LINE
  5
2B5
100
AcDbEntity
  8
1
370
     9
  6
Continuous
 62
     7
100
AcDbLine
 10
54.999999
 20
140.5
 30
0.0
 11
54.999999
 21
129.499999
 31
0.0
  0
LINE
  5
2B6
100
AcDbEntity
  8
1
370
     9
  6
Continuous
 62
     7
100
AcDbLine
 10
57.499999
 20
143.0
 30
0.0
 11
60.499999
 21
143.0
 31
0.0
  0
LINE
  5
2B7
100
AcDbEntity
  8
1
370
     9
  6
Continuous
 62
     7
100
AcDbLine
 10
54.999999
 20
140.5
 30
0.0
 11
57.499999
 21
143.0
 31
0.0
  0
LINE
  5
2B8
100
AcDbEntity
  8
1
370
     9
  6
Continuous
 62
     7
100
AcDbLine
 10
77.750001
 20
162.5
 30
0.0
 11
115.0
 21
162.5
 31
0.0
  0
LINE
  5
2B9
100
AcDbEntity
  8
1
370
     9
  6
Continuous
 62
     7
100
AcDbLine
 10
79.000001
 20
163.0
 30
0.0
 11
79.000001
 21
162.5
 31
0.0
  0
LINE
  5
2BA
100
AcDbEntity
  8
1
370
     9
  6
Continuous
 62
     7
100
AcDbLine
 10
152.25
 20
162.5
 30
0.0
 11
115.0
 21
162.5
 31
0.0
  0
LINE
  5
2BB
100
AcDbEntity
  8
1
370
     9
  6
Continuous
 62
     7
100
AcDbLine
 10
151.0
 20
163.0
 30
0.0
 11
151.0
 21
162.5
 31
0.0
  0
LINE
  5
2BC
100
AcDbEntity
  8
1
370
     9
  6
Continuous
 62
     7
100
AcDbLine
 10
115.0
 20
161.5
 30
0.0
 11
77.750001
 21
161.5
 31
0.0
  0
LINE
  5
2BD
100
AcDbEntity
  8
1
370
     9
  6
Continuous
 62
     7
100
AcDbLine
 10
115.0
 20
161.5
 30
0.0
 11
152.25
 21
161.5
 31
0.0
  0
LINE
  5
2BE
100
AcDbEntity
  8
1
370
     9
  6
Continuous
 62
     7
100
AcDbLine
 10
151.75
 20
161.0
 30
0.0
 11
115.0
 21
161.0
 31
0.0
  0
LINE
  5
2BF
100
AcDbEntity
  8
1
370
     9
  6
Continuous
 62
     7
100
AcDbLine
 10
78.250001
 20
161.0
 30
0.0
 11
115.0
 21
161.0
 31
0.0
  0
LINE
  5
2C0
100
AcDbEntity
  8
1
370
     9
  6
Continuous
 62
     7
100
AcDbLine
 10
77.750001
 20
161.5
 30
0.0
 11
78.250001
 21
161.0
 31
0.0
  0
LINE
  5
2C1
100
AcDbEntity
  8
1
370
     9
  6
Continuous
 62
     7
100
AcDbLine
 10
77.750001
 20
162.5
 30
0.0
 11
77.750001
 21
161.5
 31
0.0
  0
LINE
  5
2C2
100
AcDbEntity
  8
1
370
     9
  6
Continuous
 62
     7
100
AcDbLine
 10
152.25
 20
162.5
 30
0.0
 11
152.25
 21
161.5
 31
0.0
  0
LINE
  5
2C3
100
AcDbEntity
  8
1
370
     9
  6
Continuous
 62
     7
100
AcDbLine
 10
152.25
 20
161.5
 30
0.0
 11
151.75
 21
161.0
 31
0.0
  0
LINE
  5
2C4
100
AcDbEntity
  8
1
370
     9
  6
Continuous
 62
     7
100
AcDbLine
 10
120.978668
 20
158.0
 30
0.0
 11
120.978668
 21
153.000001
 31
0.0
  0
LINE
  5
2C5
100
AcDbEntity
  8
1
370
     9
  6
Continuous
 62
     7
100
AcDbLine
 10
108.978667
 20
158.0
 30
0.0
 11
120.978668
 21
158.0
 31
0.0
  0
LINE
  5
2C6
100
AcDbEntity
  8
1
370
     9
  6
Continuous
 62
     7
100
AcDbLine
 10
108.978667
 20
153.000001
 30
0.0
 11
120.978668
 21
153.000001
 31
0.0
  0
LINE
  5
2C7
100
AcDbEntity
  8
1
370
     9
  6
Continuous
 62
     7
100
AcDbLine
 10
108.978667
 20
158.0
 30
0.0
 11
108.978667
 21
153.000001
 31
0.0
  0
LINE
  5
2C8
100
AcDbEntity
  8
1
370
     9
  6
Continuous
 62
     7
100
AcDbLine
 10
124.165152
 20
159.5
 30
0.0
 11
124.165152
 21
152.000001
 31
0.0
  0
LINE
  5
2C9
100
AcDbEntity
  8
1
370
     9
  6
Continuous
 62
     7
100
AcDbLine
 10
105.834849
 20
159.5
 30
0.0
 11
105.834849
 21
152.000001
 31
0.0
  0
LINE
  5
2CA
100
AcDbEntity
  8
1
370
     9
  6
Continuous
 62
     7
100
AcDbLine
 10
94.225909
 20
151.101
 30
0.0
 11
107.208019
 21
141.580784
 31
0.0
  0
LINE
  5
2CB
100
AcDbEntity
  8
1
370
     9
  6
Continuous
 62
     7
100
AcDbLine
 10
105.834849
 20
152.000001
 30
0.0
 11
94.216669
 21
152.000001
 31
0.0
  0
ARC
  5
2CC
100
AcDbEntity
  8
1
370
     9
  6
Continuous
 62
     7
100
AcDbCircle
 10
96.0
 20
153.520215
 30
0.0
 40
3.0
100
AcDbArc
 50
180.0
 51
-126.253845
  0
LINE
  5
2CD
100
AcDbEntity
  8
1
370
     9
  6
Continuous
 62
     7
100
AcDbLine
 10
124.165152
 20
152.000001
 30
0.0
 11
135.783332
 21
152.000001
 31
0.0
  0
LINE
  5
2CE
100
AcDbEntity
  8
1
370
     9
  6
Continuous
 62
     7
100
AcDbLine
 10
135.774091
 20
151.101
 30
0.0
 11
122.791982
 21
141.580784
 31
0.0
  0
ARC
  5
2CF
100
AcDbEntity
  8
1
370
     9
  6
Continuous
 62
     7
100
AcDbCircle
 10
134.000001
 20
153.520215
 30
0.0
 40
3.0
100
AcDbArc
 50
-53.746155
 51
0.0
  0
LINE
  5
2D0
100
AcDbEntity
  8
1
370
     9
  6
Continuous
 62
     7
100
AcDbLine
 10
115.0
 20
141.0
 30
0.0
 11
121.01789
 21
141.0
 31
0.0
  0
ARC
  5
2D1
100
AcDbEntity
  8
1
370
     9
  6
Continuous
 62
     7
100
AcDbCircle
 10
121.01789
 20
144.0
 30
0.0
 40
3.0
100
AcDbArc
 50
-90.0
 51
-53.746158
  0
LINE
  5
2D2
100
AcDbEntity
  8
1
370
     9
  6
Continuous
 62
     7
100
AcDbLine
 10
115.0
 20
141.0
 30
0.0
 11
108.66846
 21
141.0
 31
0.0
  0
ARC
  5
2D3
100
AcDbEntity
  8
1
370
     9
  6
Continuous
 62
     7
100
AcDbCircle
 10
108.66846
 20
144.0
 30
0.0
 40
3.0
100
AcDbArc
 50
-126.866343
 51
-90.0
  0
ARC
  5
2D4
100
AcDbEntity
  8
1
370
     9
  6
Continuous
 62
     7
100
AcDbCircle
 10
115.0
 20
169.249089
 30
0.0
 40
19.53282
100
AcDbArc
 50
-117.983551
 51
-62.016449
  0
LINE
  5
2D5
100
AcDbEntity
  8
1
370
     9
  6
Continuous
 62
     7
100
AcDbLine
 10
135.994
 20
141.062178
 30
0.0
 11
124.287001
 21
141.062178
 31
0.0
  0
LINE
  5
2D6
100
AcDbEntity
  8
1
370
     9
  6
Continuous
 62
     7
100
AcDbLine
 10
95.156866
 20
143.474144
 30
0.0
 11
103.324001
 21
143.474144
 31
0.0
  0
LINE
  5
2D7
100
AcDbEntity
  8
1
370
     9
  6
Continuous
 62
     7
100
AcDbLine
 10
122.331437
 20
140.484828
 30
0.0
 11
144.0
 21
140.484828
 31
0.0
  0
ARC
  5
2D8
100
AcDbEntity
  8
1
370
     9
  6
Continuous
 62
     7
100
AcDbCircle
 10
83.500001
 20
134.999999
 30
0.0
 40
0.5
100
AcDbArc
 50
130.0
 51
-130.0
  0
LINE
  5
2D9
100
AcDbEntity
  8
1
370
     9
  6
Continuous
 62
     7
100
AcDbLine
 10
85.217173
 20
135.499998
 30
0.0
 11
92.5
 21
135.499998
 31
0.0
  0
LINE
  5
2DA
100
AcDbEntity
  8
1
370
     9
  6
Continuous
 62
     7
100
AcDbLine
 10
85.217173
 20
134.499999
 30
0.0
 11
92.5
 21
134.499999
 31
0.0
  0
ARC
  5
2DB
100
AcDbEntity
  8
1
370
     9
  6
Continuous
 62
     7
100
AcDbCircle
 10
92.5
 20
134.999999
 30
0.0
 40
0.5
100
AcDbArc
 50
-90.0
 51
90.0
  0
ARC
  5
2DC
100
AcDbEntity
  8
1
370
     9
  6
Continuous
 62
     7
100
AcDbCircle
 10
86.611447
 20
132.389184
 30
0.0
 40
0.5
100
AcDbArc
 50
-135.0
 51
45.0
  0
ARC
  5
2DD
100
AcDbEntity
  8
1
370
     9
  6
Continuous
 62
     7
100
AcDbCircle
 10
85.217173
 20
135.624998
 30
0.0
 40
0.124999
100
AcDbArc
 50
130.000002
 51
-90.0
  0
LINE
  5
2DE
100
AcDbEntity
  8
1
370
     9
  6
Continuous
 62
     7
100
AcDbLine
 10
85.136825
 20
134.279243
 30
0.0
 11
86.932985
 21
132.772085
 31
0.0
  0
ARC
  5
2DF
100
AcDbEntity
  8
1
370
     9
  6
Continuous
 62
     7
100
AcDbCircle
 10
85.217173
 20
134.374998
 30
0.0
 40
0.124999
100
AcDbArc
 50
90.0
 51
-130.000002
  0
LINE
  5
2E0
100
AcDbEntity
  8
1
370
     9
  6
Continuous
 62
     7
100
AcDbLine
 10
83.178607
 20
134.616976
 30
0.0
 11
86.310282
 21
131.989187
 31
0.0
  0
ARC
  5
2E1
100
AcDbEntity
  8
1
370
     9
  6
Continuous
 62
     7
100
AcDbCircle
 10
86.611447
 20
137.610813
 30
0.0
 40
0.5
100
AcDbArc
 50
-45.0
 51
135.0
  0
LINE
  5
2E2
100
AcDbEntity
  8
1
370
     9
  6
Continuous
 62
     7
100
AcDbLine
 10
83.178607
 20
135.38302
 30
0.0
 11
86.310282
 21
138.010808
 31
0.0
  0
LINE
  5
2E3
100
AcDbEntity
  8
1
370
     9
  6
Continuous
 62
     7
100
AcDbLine
 10
85.136825
 20
135.720754
 30
0.0
 11
86.932985
 21
137.227911
 31
0.0
  0
LINE
  5
2E4
100
AcDbEntity
  8
1
370
     9
  6
Continuous
 62
     7
100
AcDbLine
 10
129.499999
 20
124.782828
 30
0.0
 11
129.499999
 21
117.500001
 31
0.0
  0
LINE
  5
2E5
100
AcDbEntity
  8
1
370
     9
  6
Continuous
 62
     7
100
AcDbLine
 10
128.499999
 20
124.782828
 30
0.0
 11
128.499999
 21
117.500001
 31
0.0
  0
ARC
  5
2E6
100
AcDbEntity
  8
1
370
     9
  6
Continuous
 62
     7
100
AcDbCircle
 10
128.999999
 20
117.500001
 30
0.0
 40
0.5
100
AcDbArc
 50
180.0
 51
0.0
  0
ARC
  5
2E7
100
AcDbEntity
  8
1
370
     9
  6
Continuous
 62
     7
100
AcDbCircle
 10
126.389185
 20
123.388554
 30
0.0
 40
0.5
100
AcDbArc
 50
135.0
 51
-45.0
  0
ARC
  5
2E8
100
AcDbEntity
  8
1
370
     9
  6
Continuous
 62
     7
100
AcDbCircle
 10
129.624999
 20
124.782828
 30
0.0
 40
0.124999
100
AcDbArc
 50
40.000002
 51
180.0
  0
LINE
  5
2E9
100
AcDbEntity
  8
1
370
     9
  6
Continuous
 62
     7
100
AcDbLine
 10
128.279244
 20
124.863176
 30
0.0
 11
126.772086
 21
123.067017
 31
0.0
  0
ARC
  5
2EA
100
AcDbEntity
  8
1
370
     9
  6
Continuous
 62
     7
100
AcDbCircle
 10
128.374999
 20
124.782828
 30
0.0
 40
0.124999
100
AcDbArc
 50
0.0
 51
139.999998
  0
LINE
  5
2EB
100
AcDbEntity
  8
1
370
     9
  6
Continuous
 62
     7
100
AcDbLine
 10
128.616977
 20
126.821394
 30
0.0
 11
125.989188
 21
123.689719
 31
0.0
  0
ARC
  5
2EC
100
AcDbEntity
  8
1
370
     9
  6
Continuous
 62
     7
100
AcDbCircle
 10
128.999999
 20
126.500001
 30
0.0
 40
0.5
100
AcDbArc
 50
40.0
 51
140.0
  0
ARC
  5
2ED
100
AcDbEntity
  8
1
370
     9
  6
Continuous
 62
     7
100
AcDbCircle
 10
131.610814
 20
123.388554
 30
0.0
 40
0.5
100
AcDbArc
 50
-135.0
 51
45.0
  0
LINE
  5
2EE
100
AcDbEntity
  8
1
370
     9
  6
Continuous
 62
     7
100
AcDbLine
 10
129.38302
 20
126.821394
 30
0.0
 11
132.010809
 21
123.689719
 31
0.0
  0
LINE
  5
2EF
100
AcDbEntity
  8
1
370
     9
  6
Continuous
 62
     7
100
AcDbLine
 10
129.720755
 20
124.863176
 30
0.0
 11
131.227912
 21
123.067017
 31
0.0
  0
ARC
  5
2F0
100
AcDbEntity
  8
1
370
     9
  6
Continuous
 62
     7
100
AcDbCircle
 10
95.835477
 20
146.38083
 30
0.0
 40
3.0
100
AcDbArc
 50
-160.936846
 51
-107.259319
  0
ARC
  5
2F1
100
AcDbEntity
  8
1
370
     9
  6
Continuous
 62
     7
100
AcDbCircle
 10
135.994
 20
142.062178
 30
0.0
 40
1.0
100
AcDbArc
 50
-90.0
 51
0.0
  0
LINE
  5
2F2
100
AcDbEntity
  8
1
370
     9
  6
Continuous
 62
     7
100
AcDbLine
 10
143.0
 20
142.000001
 30
0.0
 11
140.0
 21
142.000001
 31
0.0
  0
LINE
  5
2F3
100
AcDbEntity
  8
1
370
     9
  6
Continuous
 62
     7
100
AcDbLine
 10
137.000001
 20
158.0
 30
0.0
 11
137.000001
 21
145.000001
 31
0.0
  0
ARC
  5
2F4
100
AcDbEntity
  8
1
370
     9
  6
Continuous
 62
     7
100
AcDbCircle
 10
140.0
 20
145.000001
 30
0.0
 40
3.0
100
AcDbArc
 50
180.0
 51
-90.0
  0
ARC
  5
2F5
100
AcDbEntity
  8
1
370
     9
  6
Continuous
 62
     7
100
AcDbCircle
 10
140.0
 20
158.0
 30
0.0
 40
3.0
100
AcDbArc
 50
90.0
 51
180.0
  0
LINE
  5
2F6
100
AcDbEntity
  8
1
370
     9
  6
Continuous
 62
     7
100
AcDbLine
 10
93.0
 20
158.0
 30
0.0
 11
93.0
 21
148.969657
 31
0.0
  0
ARC
  5
2F7
100
AcDbEntity
  8
1
370
     9
  6
Continuous
 62
     7
100
AcDbCircle
 10
90.0
 20
148.969657
 30
0.0
 40
3.0
100
AcDbArc
 50
-90.0
 51
0.0
  0
ARC
  5
2F8
100
AcDbEntity
  8
1
370
     9
  6
Continuous
 62
     7
100
AcDbCircle
 10
90.0
 20
158.0
 30
0.0
 40
3.0
100
AcDbArc
 50
0.0
 51
90.0
  0
LINE
  5
2F9
100
AcDbEntity
  8
1
370
     9
  6
Continuous
 62
     7
100
AcDbLine
 10
99.535531
 20
133.82662
 30
0.0
 11
99.0
 21
132.964552
 31
0.0
  0
LINE
  5
2FA
100
AcDbEntity
  8
1
370
     9
  6
Continuous
 62
     7
100
AcDbLine
 10
104.211602
 20
136.308337
 30
0.0
 11
104.681821
 21
137.157343
 31
0.0
  0
LINE
  5
2FB
100
AcDbEntity
  8
1
370
     9
  6
Continuous
 62
     7
100
AcDbLine
 10
106.118602
 20
133.82662
 30
0.0
 11
105.439398
 21
133.82662
 31
0.0
  0
LINE
  5
2FC
100
AcDbEntity
  8
1
370
     9
  6
Continuous
 62
     7
100
AcDbLine
 10
107.346399
 20
136.687124
 30
0.0
 11
107.346399
 21
133.447834
 31
0.0
  0
LINE
  5
2FD
100
AcDbEntity
  8
1
370
     9
  6
Continuous
 62
     7
100
AcDbLine
 10
109.710563
 20
134.401333
 30
0.0
 11
109.932612
 21
133.82662
 31
0.0
  0
LINE
  5
2FE
100
AcDbEntity
  8
1
370
     9
  6
Continuous
 62
     7
100
AcDbLine
 10
112.30983
 20
132.964552
 30
0.0
 11
112.30983
 21
137.157343
 31
0.0
  0
LINE
  5
2FF
100
AcDbEntity
  8
1
370
     9
  6
Continuous
 62
     7
100
AcDbLine
 10
114.974408
 20
132.964552
 30
0.0
 11
114.974408
 21
135.158911
 31
0.0
  0
LINE
  5
300
100
AcDbEntity
  8
1
370
     9
  6
Continuous
 62
     7
100
AcDbLine
 10
115.366256
 20
133.447834
 30
0.0
 11
115.836474
 21
132.964552
 31
0.0
  0
LINE
  5
301
100
AcDbEntity
  8
1
370
     9
  6
Continuous
 62
     7
100
AcDbLine
 10
116.881411
 20
133.72213
 30
0.0
 11
116.881411
 21
134.871556
 31
0.0
  0
LINE
  5
302
100
AcDbEntity
  8
1
370
     9
  6
Continuous
 62
     7
100
AcDbLine
 10
119.71579
 20
133.356401
 30
0.0
 11
120.186009
 21
132.964552
 31
0.0
  0
LINE
  5
303
100
AcDbEntity
  8
1
370
     9
  6
Continuous
 62
     7
100
AcDbLine
 10
122.994264
 20
136.687124
 30
0.0
 11
122.510983
 21
137.157343
 31
0.0
  0
LINE
  5
304
100
AcDbEntity
  8
1
370
     9
  6
Continuous
 62
     7
100
AcDbLine
 10
123.373056
 20
132.964552
 30
0.0
 11
124.13063
 21
132.964552
 31
0.0
  0
LINE
  5
305
100
AcDbEntity
  8
1
370
     9
  6
Continuous
 62
     7
100
AcDbLine
 10
126.037633
 20
132.964552
 30
0.0
 11
126.455605
 21
133.199663
 31
0.0
  0
LINE
  5
306
100
AcDbEntity
  8
1
370
     9
  6
Continuous
 62
     7
100
AcDbLine
 10
127.226245
 20
132.964552
 30
0.0
 11
128.271178
 21
132.964552
 31
0.0
  0
LINE
  5
307
100
AcDbEntity
  8
1
370
     9
  6
Continuous
 62
     7
100
AcDbLine
 10
131.001065
 20
133.447834
 30
0.0
 11
131.001065
 21
136.687124
 31
0.0
  0
LINE
  5
308
100
AcDbEntity
  8
1
370
     9
  6
Continuous
 62
     7
100
AcDbLine
 10
104.681821
 20
137.157343
 30
0.0
 11
101.651521
 21
137.157343
 31
0.0
  0
LINE
  5
309
100
AcDbEntity
  8
1
370
     9
  6
Continuous
 62
     7
100
AcDbLine
 10
99.0
 20
132.964552
 30
0.0
 11
101.951937
 21
132.964552
 31
0.0
  0
LINE
  5
30A
100
AcDbEntity
  8
1
370
     9
  6
Continuous
 62
     7
100
AcDbLine
 10
104.681821
 20
137.157343
 30
0.0
 11
101.651521
 21
137.157343
 31
0.0
  0
LINE
  5
30B
100
AcDbEntity
  8
1
370
     9
  6
Continuous
 62
     7
100
AcDbLine
 10
105.439398
 20
133.82662
 30
0.0
 11
105.439398
 21
132.964552
 31
0.0
  0
LINE
  5
30C
100
AcDbEntity
  8
1
370
     9
  6
Continuous
 62
     7
100
AcDbLine
 10
107.346399
 20
133.447834
 30
0.0
 11
107.829679
 21
132.964552
 31
0.0
  0
LINE
  5
30D
100
AcDbEntity
  8
1
370
     9
  6
Continuous
 62
     7
100
AcDbLine
 10
109.932612
 20
133.82662
 30
0.0
 11
108.208471
 21
133.82662
 31
0.0
  0
LINE
  5
30E
100
AcDbEntity
  8
1
370
     9
  6
Continuous
 62
     7
100
AcDbLine
 10
112.30983
 20
137.157343
 30
0.0
 11
111.447761
 21
137.157343
 31
0.0
  0
LINE
  5
30F
100
AcDbEntity
  8
1
370
     9
  6
Continuous
 62
     7
100
AcDbLine
 10
114.974408
 20
135.158911
 30
0.0
 11
114.504189
 21
135.62913
 31
0.0
  0
LINE
  5
310
100
AcDbEntity
  8
1
370
     9
  6
Continuous
 62
     7
100
AcDbLine
 10
115.836474
 20
132.964552
 30
0.0
 11
117.168767
 21
132.964552
 31
0.0
  0
LINE
  5
311
100
AcDbEntity
  8
1
370
     9
  6
Continuous
 62
     7
100
AcDbLine
 10
116.881411
 20
134.871556
 30
0.0
 11
116.123834
 21
134.871556
 31
0.0
  0
LINE
  5
312
100
AcDbEntity
  8
1
370
     9
  6
Continuous
 62
     7
100
AcDbLine
 10
120.186009
 20
132.964552
 30
0.0
 11
120.826033
 21
132.964552
 31
0.0
  0
LINE
  5
313
100
AcDbEntity
  8
1
370
     9
  6
Continuous
 62
     7
100
AcDbLine
 10
122.510983
 20
137.157343
 30
0.0
 11
121.439931
 21
137.157343
 31
0.0
  0
LINE
  5
314
100
AcDbEntity
  8
1
370
     9
  6
Continuous
 62
     7
100
AcDbLine
 10
124.13063
 20
132.964552
 30
0.0
 11
124.13063
 21
137.157343
 31
0.0
  0
LINE
  5
315
100
AcDbEntity
  8
1
370
     9
  6
Continuous
 62
     7
100
AcDbLine
 10
126.455605
 20
133.199663
 30
0.0
 11
128.715276
 21
137.157343
 31
0.0
  0
LINE
  5
316
100
AcDbEntity
  8
1
370
     9
  6
Continuous
 62
     7
100
AcDbLine
 10
128.271178
 20
132.964552
 30
0.0
 11
130.047561
 21
136.020978
 31
0.0
  0
LINE
  5
317
100
AcDbEntity
  8
1
370
     9
  6
Continuous
 62
     7
100
AcDbLine
 10
131.001065
 20
136.687124
 30
0.0
 11
130.517784
 21
137.157343
 31
0.0
  0
LINE
  5
318
100
AcDbEntity
  8
1
370
     9
  6
Continuous
 62
     7
100
AcDbLine
 10
101.651521
 20
137.157343
 30
0.0
 11
101.246607
 21
136.922235
 31
0.0
  0
LINE
  5
319
100
AcDbEntity
  8
1
370
     9
  6
Continuous
 62
     7
100
AcDbLine
 10
101.951937
 20
132.964552
 30
0.0
 11
102.330725
 21
133.147416
 31
0.0
  0
LINE
  5
31A
100
AcDbEntity
  8
1
370
     9
  6
Continuous
 62
     7
100
AcDbLine
 10
105.831247
 20
137.157343
 30
0.0
 11
105.374091
 21
136.830805
 31
0.0
  0
LINE
  5
31B
100
AcDbEntity
  8
1
370
     9
  6
Continuous
 62
     7
100
AcDbLine
 10
105.439398
 20
132.964552
 30
0.0
 11
106.497394
 21
132.964552
 31
0.0
  0
LINE
  5
31C
100
AcDbEntity
  8
1
370
     9
  6
Continuous
 62
     7
100
AcDbLine
 10
107.829679
 20
132.964552
 30
0.0
 11
110.494262
 21
132.964552
 31
0.0
  0
LINE
  5
31D
100
AcDbEntity
  8
1
370
     9
  6
Continuous
 62
     7
100
AcDbLine
 10
108.208471
 20
133.82662
 30
0.0
 11
108.208471
 21
136.308337
 31
0.0
  0
LINE
  5
31E
100
AcDbEntity
  8
1
370
     9
  6
Continuous
 62
     7
100
AcDbLine
 10
112.688616
 20
135.62913
 30
0.0
 11
112.688616
 21
132.964552
 31
0.0
  0
LINE
  5
31F
100
AcDbEntity
  8
1
370
     9
  6
Continuous
 62
     7
100
AcDbLine
 10
114.504189
 20
135.62913
 30
0.0
 11
113.929475
 21
135.62913
 31
0.0
  0
LINE
  5
320
100
AcDbEntity
  8
1
370
     9
  6
Continuous
 62
     7
100
AcDbLine
 10
117.168767
 20
132.964552
 30
0.0
 11
117.652047
 21
133.447834
 31
0.0
  0
LINE
  5
321
100
AcDbEntity
  8
1
370
     9
  6
Continuous
 62
     7
100
AcDbLine
 10
118.514116
 20
137.157343
 30
0.0
 11
118.030833
 21
136.687124
 31
0.0
  0
LINE
  5
322
100
AcDbEntity
  8
1
370
     9
  6
Continuous
 62
     7
100
AcDbLine
 10
120.826033
 20
132.964552
 30
0.0
 11
121.296252
 21
133.356401
 31
0.0
  0
LINE
  5
323
100
AcDbEntity
  8
1
370
     9
  6
Continuous
 62
     7
100
AcDbLine
 10
121.439931
 20
137.157343
 30
0.0
 11
120.943586
 21
136.687124
 31
0.0
  0
LINE
  5
324
100
AcDbEntity
  8
1
370
     9
  6
Continuous
 62
     7
100
AcDbLine
 10
124.13063
 20
137.157343
 30
0.0
 11
123.373056
 21
137.157343
 31
0.0
  0
LINE
  5
325
100
AcDbEntity
  8
1
370
     9
  6
Continuous
 62
     7
100
AcDbLine
 10
128.715276
 20
137.157343
 30
0.0
 11
127.65728
 21
137.157343
 31
0.0
  0
LINE
  5
326
100
AcDbEntity
  8
1
370
     9
  6
Continuous
 62
     7
100
AcDbLine
 10
130.047561
 20
136.020978
 30
0.0
 11
130.138993
 21
136.020978
 31
0.0
  0
LINE
  5
327
100
AcDbEntity
  8
1
370
     9
  6
Continuous
 62
     7
100
AcDbLine
 10
130.517784
 20
137.157343
 30
0.0
 11
129.903886
 21
137.157343
 31
0.0
  0
LINE
  5
328
100
AcDbEntity
  8
1
370
     9
  6
Continuous
 62
     7
100
AcDbLine
 10
101.246607
 20
136.922235
 30
0.0
 11
100.867816
 21
136.308337
 31
0.0
  0
LINE
  5
329
100
AcDbEntity
  8
1
370
     9
  6
Continuous
 62
     7
100
AcDbLine
 10
102.330725
 20
133.147416
 30
0.0
 11
102.774821
 21
133.931115
 31
0.0
  0
LINE
  5
32A
100
AcDbEntity
  8
1
370
     9
  6
Continuous
 62
     7
100
AcDbLine
 10
105.374091
 20
136.830805
 30
0.0
 11
103.192792
 21
132.964552
 31
0.0
  0
LINE
  5
32B
100
AcDbEntity
  8
1
370
     9
  6
Continuous
 62
     7
100
AcDbLine
 10
106.497394
 20
132.964552
 30
0.0
 11
106.967612
 21
133.447834
 31
0.0
  0
LINE
  5
32C
100
AcDbEntity
  8
1
370
     9
  6
Continuous
 62
     7
100
AcDbLine
 10
110.494262
 20
132.964552
 30
0.0
 11
110.938354
 21
133.617635
 31
0.0
  0
LINE
  5
32D
100
AcDbEntity
  8
1
370
     9
  6
Continuous
 62
     7
100
AcDbLine
 10
108.208471
 20
136.308337
 30
0.0
 11
110.781615
 21
136.308337
 31
0.0
  0
LINE
  5
32E
100
AcDbEntity
  8
1
370
     9
  6
Continuous
 62
     7
100
AcDbLine
 10
112.688616
 20
132.964552
 30
0.0
 11
113.459256
 21
132.964552
 31
0.0
  0
LINE
  5
32F
100
AcDbEntity
  8
1
370
     9
  6
Continuous
 62
     7
100
AcDbLine
 10
113.929475
 20
135.62913
 30
0.0
 11
113.459256
 21
135.158911
 31
0.0
  0
LINE
  5
330
100
AcDbEntity
  8
1
370
     9
  6
Continuous
 62
     7
100
AcDbLine
 10
117.652047
 20
133.447834
 30
0.0
 11
117.652047
 21
135.158911
 31
0.0
  0
LINE
  5
331
100
AcDbEntity
  8
1
370
     9
  6
Continuous
 62
     7
100
AcDbLine
 10
118.030833
 20
136.687124
 30
0.0
 11
118.030833
 21
132.964552
 31
0.0
  0
LINE
  5
332
100
AcDbEntity
  8
1
370
     9
  6
Continuous
 62
     7
100
AcDbLine
 10
121.296252
 20
133.356401
 30
0.0
 11
121.870964
 21
136.39977
 31
0.0
  0
LINE
  5
333
100
AcDbEntity
  8
1
370
     9
  6
Continuous
 62
     7
100
AcDbLine
 10
120.943586
 20
136.687124
 30
0.0
 11
120.512553
 21
134.113978
 31
0.0
  0
LINE
  5
334
100
AcDbEntity
  8
1
370
     9
  6
Continuous
 62
     7
100
AcDbLine
 10
124.50942
 20
137.157343
 30
0.0
 11
126.324989
 21
134.871556
 31
0.0
  0
LINE
  5
335
100
AcDbEntity
  8
1
370
     9
  6
Continuous
 62
     7
100
AcDbLine
 10
127.65728
 20
137.157343
 30
0.0
 11
126.808269
 21
135.733625
 31
0.0
  0
LINE
  5
336
100
AcDbEntity
  8
1
370
     9
  6
Continuous
 62
     7
100
AcDbLine
 10
130.138993
 20
136.020978
 30
0.0
 11
130.138993
 21
133.82662
 31
0.0
  0
LINE
  5
337
100
AcDbEntity
  8
1
370
     9
  6
Continuous
 62
     7
100
AcDbLine
 10
100.867816
 20
136.308337
 30
0.0
 11
100.867816
 21
135.825057
 31
0.0
  0
LINE
  5
338
100
AcDbEntity
  8
1
370
     9
  6
Continuous
 62
     7
100
AcDbLine
 10
102.774821
 20
133.931115
 30
0.0
 11
102.800942
 21
134.349086
 31
0.0
  0
LINE
  5
339
100
AcDbEntity
  8
1
370
     9
  6
Continuous
 62
     7
100
AcDbLine
 10
103.192792
 20
132.964552
 30
0.0
 11
104.250786
 21
132.964552
 31
0.0
  0
LINE
  5
33A
100
AcDbEntity
  8
1
370
     9
  6
Continuous
 62
     7
100
AcDbLine
 10
106.967612
 20
133.447834
 30
0.0
 11
106.967612
 21
136.687124
 31
0.0
  0
LINE
  5
33B
100
AcDbEntity
  8
1
370
     9
  6
Continuous
 62
     7
100
AcDbLine
 10
110.938354
 20
133.617635
 30
0.0
 11
110.285272
 21
135.250344
 31
0.0
  0
LINE
  5
33C
100
AcDbEntity
  8
1
370
     9
  6
Continuous
 62
     7
100
AcDbLine
 10
110.781615
 20
136.308337
 30
0.0
 11
110.781615
 21
137.157343
 31
0.0
  0
LINE
  5
33D
100
AcDbEntity
  8
1
370
     9
  6
Continuous
 62
     7
100
AcDbLine
 10
113.459256
 20
132.964552
 30
0.0
 11
113.459256
 21
134.81931
 31
0.0
  0
LINE
  5
33E
100
AcDbEntity
  8
1
370
     9
  6
Continuous
 62
     7
100
AcDbLine
 10
113.459256
 20
135.158911
 30
0.0
 11
113.459256
 21
135.62913
 31
0.0
  0
LINE
  5
33F
100
AcDbEntity
  8
1
370
     9
  6
Continuous
 62
     7
100
AcDbLine
 10
117.652047
 20
135.158911
 30
0.0
 11
117.168767
 21
135.62913
 31
0.0
  0
LINE
  5
340
100
AcDbEntity
  8
1
370
     9
  6
Continuous
 62
     7
100
AcDbLine
 10
118.030833
 20
132.964552
 30
0.0
 11
118.78841
 21
132.964552
 31
0.0
  0
LINE
  5
341
100
AcDbEntity
  8
1
370
     9
  6
Continuous
 62
     7
100
AcDbLine
 10
121.870964
 20
136.39977
 30
0.0
 11
122.22363
 21
136.39977
 31
0.0
  0
LINE
  5
342
100
AcDbEntity
  8
1
370
     9
  6
Continuous
 62
     7
100
AcDbLine
 10
120.512553
 20
134.113978
 30
0.0
 11
120.042328
 21
136.687124
 31
0.0
  0
LINE
  5
343
100
AcDbEntity
  8
1
370
     9
  6
Continuous
 62
     7
100
AcDbLine
 10
126.324989
 20
134.871556
 30
0.0
 11
125.711091
 21
133.72213
 31
0.0
  0
LINE
  5
344
100
AcDbEntity
  8
1
370
     9
  6
Continuous
 62
     7
100
AcDbLine
 10
126.808269
 20
135.733625
 30
0.0
 11
125.658843
 21
137.157343
 31
0.0
  0
LINE
  5
345
100
AcDbEntity
  8
1
370
     9
  6
Continuous
 62
     7
100
AcDbLine
 10
130.138993
 20
133.82662
 30
0.0
 11
129.472853
 21
133.82662
 31
0.0
  0
LINE
  5
346
100
AcDbEntity
  8
1
370
     9
  6
Continuous
 62
     7
100
AcDbLine
 10
100.867816
 20
135.825057
 30
0.0
 11
101.886627
 21
134.087852
 31
0.0
  0
LINE
  5
347
100
AcDbEntity
  8
1
370
     9
  6
Continuous
 62
     7
100
AcDbLine
 10
102.800942
 20
134.349086
 30
0.0
 11
101.729889
 21
136.073226
 31
0.0
  0
LINE
  5
348
100
AcDbEntity
  8
1
370
     9
  6
Continuous
 62
     7
100
AcDbLine
 10
104.250786
 20
132.964552
 30
0.0
 11
106.014111
 21
136.020978
 31
0.0
  0
LINE
  5
349
100
AcDbEntity
  8
1
370
     9
  6
Continuous
 62
     7
100
AcDbLine
 10
106.967612
 20
136.687124
 30
0.0
 11
106.497394
 21
137.157343
 31
0.0
  0
LINE
  5
34A
100
AcDbEntity
  8
1
370
     9
  6
Continuous
 62
     7
100
AcDbLine
 10
110.285272
 20
135.250344
 30
0.0
 11
109.253402
 21
135.250344
 31
0.0
  0
LINE
  5
34B
100
AcDbEntity
  8
1
370
     9
  6
Continuous
 62
     7
100
AcDbLine
 10
110.781615
 20
137.157343
 30
0.0
 11
107.829679
 21
137.157343
 31
0.0
  0
LINE
  5
34C
100
AcDbEntity
  8
1
370
     9
  6
Continuous
 62
     7
100
AcDbLine
 10
113.459256
 20
134.81931
 30
0.0
 11
114.229892
 21
134.81931
 31
0.0
  0
LINE
  5
34D
100
AcDbEntity
  8
1
370
     9
  6
Continuous
 62
     7
100
AcDbLine
 10
113.459256
 20
135.62913
 30
0.0
 11
112.688616
 21
135.62913
 31
0.0
  0
LINE
  5
34E
100
AcDbEntity
  8
1
370
     9
  6
Continuous
 62
     7
100
AcDbLine
 10
117.168767
 20
135.62913
 30
0.0
 11
115.836474
 21
135.62913
 31
0.0
  0
LINE
  5
34F
100
AcDbEntity
  8
1
370
     9
  6
Continuous
 62
     7
100
AcDbLine
 10
118.78841
 20
132.964552
 30
0.0
 11
118.78841
 21
136.39977
 31
0.0
  0
LINE
  5
350
100
AcDbEntity
  8
1
370
     9
  6
Continuous
 62
     7
100
AcDbLine
 10
122.22363
 20
136.39977
 30
0.0
 11
122.22363
 21
132.964552
 31
0.0
  0
LINE
  5
351
100
AcDbEntity
  8
1
370
     9
  6
Continuous
 62
     7
100
AcDbLine
 10
120.042328
 20
136.687124
 30
0.0
 11
119.71579
 21
137.157343
 31
0.0
  0
LINE
  5
352
100
AcDbEntity
  8
1
370
     9
  6
Continuous
 62
     7
100
AcDbLine
 10
125.711091
 20
133.72213
 30
0.0
 11
124.50942
 21
133.72213
 31
0.0
  0
LINE
  5
353
100
AcDbEntity
  8
1
370
     9
  6
Continuous
 62
     7
100
AcDbLine
 10
125.658843
 20
137.157343
 30
0.0
 11
124.50942
 21
137.157343
 31
0.0
  0
LINE
  5
354
100
AcDbEntity
  8
1
370
     9
  6
Continuous
 62
     7
100
AcDbLine
 10
129.472853
 20
133.82662
 30
0.0
 11
129.472853
 21
132.964552
 31
0.0
  0
LINE
  5
355
100
AcDbEntity
  8
1
370
     9
  6
Continuous
 62
     7
100
AcDbLine
 10
101.886627
 20
134.087852
 30
0.0
 11
101.742948
 21
133.82662
 31
0.0
  0
LINE
  5
356
100
AcDbEntity
  8
1
370
     9
  6
Continuous
 62
     7
100
AcDbLine
 10
101.729889
 20
136.073226
 30
0.0
 11
101.860506
 21
136.308337
 31
0.0
  0
LINE
  5
357
100
AcDbEntity
  8
1
370
     9
  6
Continuous
 62
     7
100
AcDbLine
 10
106.014111
 20
136.020978
 30
0.0
 11
106.118602
 21
136.020978
 31
0.0
  0
LINE
  5
358
100
AcDbEntity
  8
1
370
     9
  6
Continuous
 62
     7
100
AcDbLine
 10
106.497394
 20
137.157343
 30
0.0
 11
105.831247
 21
137.157343
 31
0.0
  0
LINE
  5
359
100
AcDbEntity
  8
1
370
     9
  6
Continuous
 62
     7
100
AcDbLine
 10
109.253402
 20
135.250344
 30
0.0
 11
109.253402
 21
134.401333
 31
0.0
  0
LINE
  5
35A
100
AcDbEntity
  8
1
370
     9
  6
Continuous
 62
     7
100
AcDbLine
 10
111.447761
 20
137.157343
 30
0.0
 11
111.447761
 21
132.964552
 31
0.0
  0
LINE
  5
35B
100
AcDbEntity
  8
1
370
     9
  6
Continuous
 62
     7
100
AcDbLine
 10
114.229892
 20
134.81931
 30
0.0
 11
114.229892
 21
132.964552
 31
0.0
  0
LINE
  5
35C
100
AcDbEntity
  8
1
370
     9
  6
Continuous
 62
     7
100
AcDbLine
 10
115.836474
 20
135.62913
 30
0.0
 11
115.366256
 21
135.158911
 31
0.0
  0
LINE
  5
35D
100
AcDbEntity
  8
1
370
     9
  6
Continuous
 62
     7
100
AcDbLine
 10
116.123834
 20
134.871556
 30
0.0
 11
116.123834
 21
133.72213
 31
0.0
  0
LINE
  5
35E
100
AcDbEntity
  8
1
370
     9
  6
Continuous
 62
     7
100
AcDbLine
 10
118.78841
 20
136.39977
 30
0.0
 11
119.15414
 21
136.39977
 31
0.0
  0
LINE
  5
35F
100
AcDbEntity
  8
1
370
     9
  6
Continuous
 62
     7
100
AcDbLine
 10
122.22363
 20
132.964552
 30
0.0
 11
122.994264
 21
132.964552
 31
0.0
  0
LINE
  5
360
100
AcDbEntity
  8
1
370
     9
  6
Continuous
 62
     7
100
AcDbLine
 10
119.71579
 20
137.157343
 30
0.0
 11
118.514116
 21
137.157343
 31
0.0
  0
LINE
  5
361
100
AcDbEntity
  8
1
370
     9
  6
Continuous
 62
     7
100
AcDbLine
 10
124.50942
 20
133.72213
 30
0.0
 11
124.50942
 21
132.964552
 31
0.0
  0
LINE
  5
362
100
AcDbEntity
  8
1
370
     9
  6
Continuous
 62
     7
100
AcDbLine
 10
129.903886
 20
137.157343
 30
0.0
 11
129.498975
 21
136.922235
 31
0.0
  0
LINE
  5
363
100
AcDbEntity
  8
1
370
     9
  6
Continuous
 62
     7
100
AcDbLine
 10
129.472853
 20
132.964552
 30
0.0
 11
130.517784
 21
132.964552
 31
0.0
  0
LINE
  5
364
100
AcDbEntity
  8
1
370
     9
  6
Continuous
 62
     7
100
AcDbLine
 10
101.742948
 20
133.82662
 30
0.0
 11
99.535531
 21
133.82662
 31
0.0
  0
LINE
  5
365
100
AcDbEntity
  8
1
370
     9
  6
Continuous
 62
     7
100
AcDbLine
 10
101.860506
 20
136.308337
 30
0.0
 11
104.211602
 21
136.308337
 31
0.0
  0
LINE
  5
366
100
AcDbEntity
  8
1
370
     9
  6
Continuous
 62
     7
100
AcDbLine
 10
106.118602
 20
136.020978
 30
0.0
 11
106.118602
 21
133.82662
 31
0.0
  0
LINE
  5
367
100
AcDbEntity
  8
1
370
     9
  6
Continuous
 62
     7
100
AcDbLine
 10
107.829679
 20
137.157343
 30
0.0
 11
107.346399
 21
136.687124
 31
0.0
  0
LINE
  5
368
100
AcDbEntity
  8
1
370
     9
  6
Continuous
 62
     7
100
AcDbLine
 10
109.253402
 20
134.401333
 30
0.0
 11
109.710563
 21
134.401333
 31
0.0
  0
LINE
  5
369
100
AcDbEntity
  8
1
370
     9
  6
Continuous
 62
     7
100
AcDbLine
 10
111.447761
 20
132.964552
 30
0.0
 11
112.30983
 21
132.964552
 31
0.0
  0
LINE
  5
36A
100
AcDbEntity
  8
1
370
     9
  6
Continuous
 62
     7
100
AcDbLine
 10
114.229892
 20
132.964552
 30
0.0
 11
114.974408
 21
132.964552
 31
0.0
  0
LINE
  5
36B
100
AcDbEntity
  8
1
370
     9
  6
Continuous
 62
     7
100
AcDbLine
 10
115.366256
 20
135.158911
 30
0.0
 11
115.366256
 21
133.447834
 31
0.0
  0
LINE
  5
36C
100
AcDbEntity
  8
1
370
     9
  6
Continuous
 62
     7
100
AcDbLine
 10
116.123834
 20
133.72213
 30
0.0
 11
116.881411
 21
133.72213
 31
0.0
  0
LINE
  5
36D
100
AcDbEntity
  8
1
370
     9
  6
Continuous
 62
     7
100
AcDbLine
 10
119.15414
 20
136.39977
 30
0.0
 11
119.71579
 21
133.356401
 31
0.0
  0
LINE
  5
36E
100
AcDbEntity
  8
1
370
     9
  6
Continuous
 62
     7
100
AcDbLine
 10
122.994264
 20
132.964552
 30
0.0
 11
122.994264
 21
136.687124
 31
0.0
  0
LINE
  5
36F
100
AcDbEntity
  8
1
370
     9
  6
Continuous
 62
     7
100
AcDbLine
 10
123.373056
 20
137.157343
 30
0.0
 11
123.373056
 21
132.964552
 31
0.0
  0
LINE
  5
370
100
AcDbEntity
  8
1
370
     9
  6
Continuous
 62
     7
100
AcDbLine
 10
124.50942
 20
132.964552
 30
0.0
 11
126.037633
 21
132.964552
 31
0.0
  0
LINE
  5
371
100
AcDbEntity
  8
1
370
     9
  6
Continuous
 62
     7
100
AcDbLine
 10
129.498975
 20
136.922235
 30
0.0
 11
127.226245
 21
132.964552
 31
0.0
  0
LINE
  5
372
100
AcDbEntity
  8
1
370
     9
  6
Continuous
 62
     7
100
AcDbLine
 10
130.517784
 20
132.964552
 30
0.0
 11
131.001065
 21
133.447834
 31
0.0
  0
LINE
  5
373
100
AcDbEntity
  8
1
370
     9
  6
Continuous
 62
     7
100
AcDbLine
 10
143.0
 20
128.0
 30
0.0
 11
135.982192
 21
128.0
 31
0.0
  0
LINE
  5
374
100
AcDbEntity
  8
1
370
     9
  6
Continuous
 62
     7
100
AcDbLine
 10
144.0
 20
141.000001
 30
0.0
 11
144.0
 21
129.0
 31
0.0
  0
ARC
  5
375
100
AcDbEntity
  8
1
370
     9
  6
Continuous
 62
     7
100
AcDbCircle
 10
143.0
 20
129.0
 30
0.0
 40
1.0
100
AcDbArc
 50
-90.0
 51
0.0
  0
ARC
  5
376
100
AcDbEntity
  8
1
370
     9
  6
Continuous
 62
     7
100
AcDbCircle
 10
143.0
 20
141.000001
 30
0.0
 40
1.0
100
AcDbArc
 50
0.0
 51
90.0
  0
LINE
  5
377
100
AcDbEntity
  8
1
370
     9
  6
Continuous
 62
     7
100
AcDbLine
 10
118.030346
 20
122.530347
 30
0.0
 11
118.030346
 21
113.442174
 31
0.0
  0
ARC
  5
378
100
AcDbEntity
  8
1
370
     9
  6
Continuous
 62
     7
100
AcDbCircle
 10
116.530346
 20
122.530347
 30
0.0
 40
1.5
100
AcDbArc
 50
0.0
 51
90.0
  0
ARC
  5
379
100
AcDbEntity
  8
1
370
     9
  6
Continuous
 62
     7
100
AcDbCircle
 10
140.969656
 20
127.000001
 30
0.0
 40
1.0
100
AcDbArc
 50
90.0
 51
180.0
  0
LINE
  5
37A
100
AcDbEntity
  8
1
370
     9
  6
Continuous
 62
     7
100
AcDbLine
 10
134.46702
 20
129.515173
 30
0.0
 11
135.982192
 21
128.0
 31
0.0
  0
LINE
  5
37B
100
AcDbEntity
  8
1
370
     9
  6
Continuous
 62
     7
100
AcDbLine
 10
134.46702
 20
129.515173
 30
0.0
 11
144.0
 21
129.515173
 31
0.0
  0
INSERT
  5
387
100
AcDbEntity
  8
3
370
     9
  6
Continuous
 62
   114
100
AcDbBlockReference
  2
*G7
 10
0.0
 20
0.0
 30
0.0
  0
TEXT
  5
388
100
AcDbEntity
  8
1
370
     9
  6
Continuous
 62
     7
100
AcDbText
 10
189.098001
 20
129.999999
 30
0.0
 40
4.0
  1
締付グランド　呼び15(a,b,c)
 41
0.710526
 11
189.098001
 21
129.999999
 31
0.0
100
AcDbText
 73
     1
  0
TEXT
  5
389
100
AcDbEntity
  8
1
370
     9
  6
Continuous
 62
     7
100
AcDbText
 10
147.853723
 20
105.055851
 30
0.0
 40
4.0
  1
2-M4×0.7 有効深さ5
 41
0.669014
 11
147.853723
 21
105.055851
 31
0.0
100
AcDbText
 73
     1
  0
ENDSEC
  0
SECTION
  2
OBJECTS
  0
DICTIONARY
  5
19
100
AcDbDictionary
280
     0
281
     1
  3
ACAD_GROUP
350
1A
  3
ACAD_MLINESTYLE
350
1B
  3
ACAD_LAYOUT
350
1E
  3
ACAD_PLOTSETTINGS
350
22
  3
ACAD_PLOTSTYLENAME
350
1F
  3
ACAD_WIPEOUT_VARS
350
23
  0
DICTIONARY
  5
1A
102
{ACAD_REACTORS
330
19
102
}
100
AcDbDictionary
280
     0
281
     1
  0
DICTIONARY
  5
1B
102
{ACAD_REACTORS
330
19
102
}
100
AcDbDictionary
280
     0
281
     1
  3
Standard
350
1C
  0
MLINESTYLE
  5
1C
102
{ACAD_REACTORS
330
1B
102
}
100
AcDbMlineStyle
  2
Standard
 70
     0
  3

 62
     0
 51
90.0
 52
90.0
 71
     2
 49
0.5
 62
   256
  6
ByLayer
 49
-0.5
 62
   256
  6
ByLayer
  0
ACDBDICTIONARYWDFLT
  5
1F
102
{ACAD_REACTORS
330
19
102
}
100
AcDbDictionary
281
     1
  3
Normal
350
1D
100
AcDbDictionaryWithDefault
340
1D
  0
ACDBPLACEHOLDER
  5
1D
102
{ACAD_REACTORS
330
1F
102
}
  0
LAYOUT
  5
20
102
{ACAD_REACTORS
330
1E
102
}
100
AcDbPlotSettings
  1

  2

  4

  6

 40
0.0
 41
0.0
 42
0.0
 43
0.0
 44
0.0
 45
0.0
 46
0.0
 47
0.0
 48
0.0
 49
0.0
140
0.0
141
0.0
142
1.0
143
1.0
 70
  1024
 72
     0
 73
     0
 74
     0
  7

 75
     0
147
1.0
148
0.0
149
0.0
100
AcDbLayout
  1
Model
 70
     0
 71
     0
 10
0.0
 20
0.0
 11
0.0
 21
0.0
 12
0.0
 22
0.0
 32
0.0
 14
0.0
 24
0.0
 34
0.0
 15
0.0
 25
0.0
 35
0.0
146
0.0
 13
0.0
 23
0.0
 33
0.0
 16
0.0
 26
0.0
 36
0.0
 17
0.0
 27
0.0
 37
0.0
 76
     0
330
A
331
0
345
0
346
0
  0
LAYOUT
  5
21
102
{ACAD_REACTORS
330
1E
102
}
100
AcDbPlotSettings
  1

  2

  4

  6

 40
0.0
 41
0.0
 42
0.0
 43
0.0
 44
0.0
 45
0.0
 46
0.0
 47
0.0
 48
0.0
 49
0.0
140
0.0
141
0.0
142
1.0
143
1.0
 70
     0
 72
     0
 73
     0
 74
     0
  7

 75
     0
147
1.0
148
0.0
149
0.0
100
AcDbLayout
  1
Layout1
 70
     0
 71
     0
 10
0.0
 20
0.0
 11
0.0
 21
0.0
 12
0.0
 22
0.0
 32
0.0
 14
0.0
 24
0.0
 34
0.0
 15
0.0
 25
0.0
 35
0.0
146
0.0
 13
0.0
 23
0.0
 33
0.0
 16
0.0
 26
0.0
 36
0.0
 17
0.0
 27
0.0
 37
0.0
 76
     0
330
B
331
0
345
0
346
0
  0
DICTIONARY
  5
1E
102
{ACAD_REACTORS
330
19
102
}
100
AcDbDictionary
280
     0
281
     1
  3
Layout1
350
21
  3
Model
350
20
  0
DICTIONARY
  5
22
102
{ACAD_REACTORS
330
19
102
}
100
AcDbDictionary
280
     0
281
     1
  0
WIPEOUTVARIABLES
  5
23
100
AcDbWipeoutVariables
 70
     1
  0
ENDSEC
  0
EOF
