  0
SECTION
  2
HEADER
  9
$ACADVER
  1
AC1003
  9
$INSBASE
 10
0.000000
 20
0.000000
  9
$EXTMIN
 10
0.000000
 20
0.000000
  9
$EXTMAX
 10
514.000000
 20
364.000000
  9
$LIMMIN
 10
0.000000
 20
0.000000
  9
$LIMMAX
 10
514.000000
 20
364.000000
  9
$VIEWCTR
 10
257.000000
 20
182.000000
  9
$VIEWSIZE
 40
364.000000
  9
$PEXTMIN
 10
0.000000
 20
0.000000
 30
0.000000
  9
$PEXTMAX
 10
257.000000
 20
182.000000
 30
0.000000
  9
$SNAPMODE
 70
     0
  9
$SNAPUNIT
 10
1.000000
 20
1.000000
  9
$SNAPBASE
 10
0.000000
 20
0.000000
  9
$SNAPANG
 50
0.000000
  9
$SNAPISOPAIR
 70
     0
  9
$SNAPSTYLE
 70
     0
  9
$GRIDMODE
 70
     0
  9
$GRIDUNIT
 10
0.000000
 20
0.000000
  9
$ORTHOMODE
 70
     0
  9
$REGENMODE
 70
     1
  9
$FILLMODE
 70
     1
  9
$QTEXTMODE
 70
     0
  9
$DRAGMODE
 70
     2
  9
$LTSCALE
 40
0.500000
  9
$OSMODE
 70
     0
  9
$ATTMODE
 70
     1
  9
$TEXTSIZE
 40
10.000000
  9
$TRACEWID
 40
0.050000
  9
$TEXTSTYLE
  7
STANDARD
  9
$CLAYER
  8
0
  9
$CELTYPE
  6
BYLAYER
  9
$CECOLOR
 62
   256
  9
$DIMSCALE
 40
1.000000
  9
$DIMASZ
 40
1.000000
  9
$DIMEXO
 40
0.000000
  9
$DIMDLI
 40
0.500000
  9
$DIMRND
 40
0.000000
  9
$DIMDLE
 40
0.000000
  9
$DIMEXE
 40
0.000000
  9
$DIMTP
 40
0.000000
  9
$DIMTM
 40
0.000000
  9
$DIMTXT
 40
4.000000
  9
$DIMCEN
 40
0.000000
  9
$DIMTSZ
 40
0.000000
  9
$DIMTOL
 70
     0
  9
$DIMLIM
 70
     0
  9
$DIMTIH
 70
     1
  9
$DIMTOH
 70
     1
  9
$DIMSE1
 70
     0
  9
$DIMSE2
 70
     0
  9
$DIMTAD
 70
     0
  9
$DIMZIN
 70
     0
  9
$DIMBLK
  1

  9
$DIMASO
 70
     0
  9
$DIMSHO
 70
     0
  9
$DIMPOST
  1

  9
$DIMAPOST
  1

  9
$DIMALT
 70
     0
  9
$DIMALTD
 70
     0
  9
$DIMALTF
 40
25.400000
  9
$DIMLFAC
 40
1.000000
  9
$DIMTOFL
 70
     0
  9
$DIMTVP
 40
0.000000
  9
$DIMTIX
 70
     0
  9
$DIMSOXD
 70
     0
  9
$DIMSAH
 70
     0
  9
$DIMBLKL
  1

  9
$DIMBLKR
  1

  9
$LUNITS
 70
     2
  9
$LUPREC
 70
     2
  9
$AXISMODE
 70
     0
  9
$AXISUNIT
 10
1.000000
 20
1.000000
  9
$SKETCHINC
 40
0.000000
  9
$FILLETRAD
 40
0.000000
  9
$AUNITS
 70
     1
  9
$AUPREC
 70
     2
  9
$MENU
  1
ACAD
  9
$ELEVATION
 40
0.000000
  9
$THICKNESS
 40
0.000000
  9
$VIEWDIR
 10
0.000000
 20
0.000000
 30
1.000000
  9
$LIMCHECK
 70
     1
  9
$BLIPMODE
 70
     1
  9
$CHAMFERA
 40
0.000000
  9
$CHAMFERB
 40
0.000000
  9
$FASTZOOM
 70
     1
  9
$SKPOLY
 70
     0
  9
$TDCREATE
 40
0.000000
  9
$TDUPDATE
 40
0.000000
  9
$TDINDWG
 40
0.000000
  9
$TDUSRTIMER
 40
0.000000
  9
$USRTIMER
 70
     1
  9
$ANGBASE
 50
0.000000
  9
$ANGDIR
 70
     0
  9
$PDMODE
 70
     0
  9
$PDSIZE
 40
0.000000
  9
$PLINEWID
 40
0.000000
  9
$COORDS
 70
     2
  9
$USERI1
 70
     0
  9
$USERI2
 70
     0
  9
$USERI3
 70
     0
  9
$USERI4
 70
     0
  9
$USERI5
 70
     0
  9
$USERR1
 40
0.000000
  9
$USERR2
 40
0.000000
  9
$USERR3
 40
0.000000
  9
$USERR4
 40
0.000000
  9
$USERR5
 40
0.000000
  0
ENDSEC
  0
SECTION
  2
TABLES
  0
TABLE
  2
LTYPE
 70
     5
  0
LTYPE
  2
CONTINUOUS
 70
    64
  3
Solid line
 72
    65
 73
     0
 40
0.0
  0
LTYPE
  2
HIDDEN
 70
    64
  3
------------------------
 72
    65
 73
     2
 40
12.6
 49
8.4
 49
-4.2
  0
LTYPE
  2
DOT
 70
    64
  3
････････････････････････
 72
    65
 73
     2
 40
8.0
 49
6.0
 49
-2.0
  0
LTYPE
  2
DASHDOT
 70
    64
  3
--･--･--･--･--･--･--･--
 72
    65
 73
     4
 40
50.5
 49
30.0
 49
-9.0
 49
2.5
 49
-9.0
  0
LTYPE
  2
DIVIDE
 70
    64
  3
--･･--･･--･･--･･--･･--
 72
    65
 73
     6
 40
58.0
 49
30.0
 49
-9.0
 49
2.5
 49
-5.0
 49
2.5
 49
-9.0
  0
LTYPE
  2
ACAD_ISO06W100
 70
    64
  3
____ ... ____ ... ____
 72
    65
 73
     8
 40
37.5
 49
24.0
 49
-3.0
 49
0.5
 49
-3.0
 49
0.5
 49
-3.0
 49
0.5
 49
-3.0
  0
LTYPE
  2
ACAD_ISO14W100
 70
    64
  3
__ . . . __ . . . __ . . . 
 72
    65
 73
     8
 40
25.5
 49
12.0
 49
-3.0
 49
0.5
 49
-3.0
 49
0.5
 49
-3.0
 49
0.5
 49
-3.0
  0
ENDTAB
  0
TABLE
  2
LAYER
 70
4
  0
LAYER
  2
1
 70
64
 62
7
  6
CONTINUOUS
  0
LAYER
  2
2
 70
64
 62
7
  6
CONTINUOUS
  0
LAYER
  2
3
 70
64
 62
7
  6
CONTINUOUS
  0
LAYER
  2
4
 70
64
 62
7
  6
CONTINUOUS
  0
ENDTAB
  0
TABLE
  2
STYLE
 70
     2
  0
STYLE
  2
STANDARD
 70
    64
 40
0.0
 41
1.0
 50
0.0
 71
     0
 42
0.2
  3
TXT
  4

  0
STYLE
  2
KANJI
 70
    64
 40
0.0
 41
1.0
 50
0.0
 71
     0
 42
0.2
  3
TXT
  4
BIGFONT
  0
ENDTAB
  0
TABLE
  2
VIEW
 70
     0
  0
ENDTAB
  0
ENDSEC
  0
SECTION
  2
BLOCKS
  0
ENDSEC
  0
SECTION
  2
ENTITIES
  0
CIRCLE
  8
1
 62
7
  6
CONTINUOUS
 10
84.739845
 20
233.485232
 40
1.160816
  0
LINE
  8
2
 62
7
  6
DASHDOT
 10
82.360544
 20
233.485232
 11
86.516745
 21
233.485232
  0
LINE
  8
1
 62
7
  6
CONTINUOUS
 10
80.739845
 20
232.040726
 11
88.739844
 21
232.040726
  0
ARC
  8
1
 62
7
  6
CONTINUOUS
 10
86.239845
 20
233.919677
 40
2.500000
 50
0.000000
 51
90.000000
  0
LINE
  8
1
 62
7
  6
CONTINUOUS
 10
83.239845
 20
236.419677
 11
86.239845
 21
236.419677
  0
ARC
  8
1
 62
7
  6
CONTINUOUS
 10
83.239845
 20
233.919677
 40
2.500000
 50
90.000000
 51
180.000000
  0
LINE
  8
2
 62
7
  6
CONTINUOUS
 10
81.489845
 20
184.866127
 11
81.498415
 21
184.872804
  0
LINE
  8
2
 62
7
  6
CONTINUOUS
 10
81.498415
 20
184.872804
 11
81.523891
 21
184.892650
  0
LINE
  8
2
 62
7
  6
CONTINUOUS
 10
81.523891
 20
184.892650
 11
81.565585
 21
184.925080
  0
LINE
  8
2
 62
7
  6
CONTINUOUS
 10
81.565585
 20
184.925080
 11
81.622386
 21
184.969061
  0
LINE
  8
2
 62
7
  6
CONTINUOUS
 10
81.622386
 20
184.969061
 11
81.692802
 21
185.023045
  0
LINE
  8
2
 62
7
  6
CONTINUOUS
 10
81.692802
 20
185.023045
 11
81.775016
 21
185.084939
  0
LINE
  8
2
 62
7
  6
CONTINUOUS
 10
81.775016
 20
185.084939
 11
81.866940
 21
185.152141
  0
LINE
  8
2
 62
7
  6
CONTINUOUS
 10
81.866940
 20
185.152141
 11
81.966259
 21
185.221666
  0
LINE
  8
2
 62
7
  6
CONTINUOUS
 10
81.966259
 20
185.221666
 11
82.070474
 21
185.290360
  0
LINE
  8
2
 62
7
  6
CONTINUOUS
 10
82.070474
 20
185.290360
 11
82.176938
 21
185.355183
  0
LINE
  8
2
 62
7
  6
CONTINUOUS
 10
82.176938
 20
185.355183
 11
82.282891
 21
185.413521
  0
LINE
  8
2
 62
7
  6
CONTINUOUS
 10
82.282891
 20
185.413521
 11
82.385495
 21
185.463456
  0
LINE
  8
2
 62
7
  6
CONTINUOUS
 10
82.385495
 20
185.463456
 11
82.481897
 21
185.503957
  0
LINE
  8
2
 62
7
  6
CONTINUOUS
 10
82.481897
 20
185.503957
 11
82.569297
 21
185.534932
  0
LINE
  8
2
 62
7
  6
CONTINUOUS
 10
82.569297
 20
185.534932
 11
82.645044
 21
185.557129
  0
LINE
  8
2
 62
7
  6
CONTINUOUS
 10
82.645044
 20
185.557129
 11
82.706743
 21
185.571902
  0
LINE
  8
2
 62
7
  6
CONTINUOUS
 10
82.706743
 20
185.571902
 11
82.752373
 21
185.580867
  0
LINE
  8
2
 62
7
  6
CONTINUOUS
 10
82.752373
 20
185.580867
 11
82.780395
 21
185.585532
  0
LINE
  8
2
 62
7
  6
CONTINUOUS
 10
82.780395
 20
185.585532
 11
82.789845
 21
185.586959
  0
LINE
  8
2
 62
7
  6
CONTINUOUS
 10
82.789845
 20
185.586959
 11
82.799308
 21
185.588315
  0
LINE
  8
2
 62
7
  6
CONTINUOUS
 10
82.799308
 20
185.588315
 11
82.827503
 21
185.591925
  0
LINE
  8
2
 62
7
  6
CONTINUOUS
 10
82.827503
 20
185.591925
 11
82.873835
 21
185.596502
  0
LINE
  8
2
 62
7
  6
CONTINUOUS
 10
82.873835
 20
185.596502
 11
82.937232
 21
185.600174
  0
LINE
  8
2
 62
7
  6
CONTINUOUS
 10
82.937232
 20
185.600174
 11
83.016071
 21
185.600834
  0
LINE
  8
2
 62
7
  6
CONTINUOUS
 10
83.016071
 20
185.600834
 11
83.108113
 21
185.596527
  0
LINE
  8
2
 62
7
  6
CONTINUOUS
 10
83.108113
 20
185.596527
 11
83.210503
 21
185.585809
  0
LINE
  8
2
 62
7
  6
CONTINUOUS
 10
83.210503
 20
185.585809
 11
83.319844
 21
185.568001
  0
LINE
  8
2
 62
7
  6
CONTINUOUS
 10
83.319844
 20
185.568001
 11
83.432365
 21
185.543302
  0
LINE
  8
2
 62
7
  6
CONTINUOUS
 10
83.432365
 20
185.543302
 11
83.544160
 21
185.512754
  0
LINE
  8
2
 62
7
  6
CONTINUOUS
 10
83.544160
 20
185.512754
 11
83.651470
 21
185.478066
  0
LINE
  8
2
 62
7
  6
CONTINUOUS
 10
83.651470
 20
185.478066
 11
83.750954
 21
185.441361
  0
LINE
  8
2
 62
7
  6
CONTINUOUS
 10
83.750954
 20
185.441361
 11
83.839909
 21
185.404887
  0
LINE
  8
2
 62
7
  6
CONTINUOUS
 10
83.839909
 20
185.404887
 11
83.916394
 21
185.370755
  0
LINE
  8
2
 62
7
  6
CONTINUOUS
 10
83.916394
 20
185.370755
 11
83.979240
 21
185.340753
  0
LINE
  8
2
 62
7
  6
CONTINUOUS
 10
83.979240
 20
185.340753
 11
84.027941
 21
185.316251
  0
LINE
  8
2
 62
7
  6
CONTINUOUS
 10
84.027941
 20
185.316251
 11
84.062466
 21
185.298193
  0
LINE
  8
2
 62
7
  6
CONTINUOUS
 10
84.062466
 20
185.298193
 11
84.083024
 21
185.287159
  0
LINE
  8
2
 62
7
  6
CONTINUOUS
 10
84.083024
 20
185.287159
 11
84.089844
 21
185.283451
  0
LINE
  8
2
 62
7
  6
CONTINUOUS
 10
84.089844
 20
185.283451
 11
84.096617
 21
185.279745
  0
LINE
  8
2
 62
7
  6
CONTINUOUS
 10
84.096617
 20
185.279745
 11
84.116467
 21
185.268745
  0
LINE
  8
2
 62
7
  6
CONTINUOUS
 10
84.116467
 20
185.268745
 11
84.148056
 21
185.250793
  0
LINE
  8
2
 62
7
  6
CONTINUOUS
 10
84.148056
 20
185.250793
 11
84.189346
 21
185.226450
  0
LINE
  8
2
 62
7
  6
CONTINUOUS
 10
84.189346
 20
185.226450
 11
84.237855
 21
185.196469
  0
LINE
  8
2
 62
7
  6
CONTINUOUS
 10
84.237855
 20
185.196469
 11
84.290947
 21
185.161768
  0
LINE
  8
2
 62
7
  6
CONTINUOUS
 10
84.290947
 20
185.161768
 11
84.346104
 21
185.123396
  0
LINE
  8
2
 62
7
  6
CONTINUOUS
 10
84.346104
 20
185.123396
 11
84.401143
 21
185.082496
  0
LINE
  8
2
 62
7
  6
CONTINUOUS
 10
84.401143
 20
185.082496
 11
84.454340
 21
185.040257
  0
LINE
  8
2
 62
7
  6
CONTINUOUS
 10
84.454340
 20
185.040257
 11
84.504462
 21
184.997881
  0
LINE
  8
2
 62
7
  6
CONTINUOUS
 10
84.504462
 20
184.997881
 11
84.550712
 21
184.956535
  0
LINE
  8
2
 62
7
  6
CONTINUOUS
 10
84.550712
 20
184.956535
 11
84.592608
 21
184.917324
  0
LINE
  8
2
 62
7
  6
CONTINUOUS
 10
84.592608
 20
184.917324
 11
84.629852
 21
184.881255
  0
LINE
  8
2
 62
7
  6
CONTINUOUS
 10
84.629852
 20
184.881255
 11
84.662202
 21
184.849219
  0
LINE
  8
2
 62
7
  6
CONTINUOUS
 10
84.662202
 20
184.849219
 11
84.689387
 21
184.821979
  0
LINE
  8
2
 62
7
  6
CONTINUOUS
 10
84.689387
 20
184.821979
 11
84.711081
 21
184.800154
  0
LINE
  8
2
 62
7
  6
CONTINUOUS
 10
84.711081
 20
184.800154
 11
84.726928
 21
184.784226
  0
LINE
  8
2
 62
7
  6
CONTINUOUS
 10
84.726928
 20
184.784226
 11
84.736594
 21
184.774534
  0
LINE
  8
2
 62
7
  6
CONTINUOUS
 10
84.736594
 20
184.774534
 11
84.739845
 21
184.771281
  0
LINE
  8
2
 62
7
  6
CONTINUOUS
 10
84.739845
 20
184.771281
 11
84.743095
 21
184.768031
  0
LINE
  8
2
 62
7
  6
CONTINUOUS
 10
84.743095
 20
184.768031
 11
84.752762
 21
184.758396
  0
LINE
  8
2
 62
7
  6
CONTINUOUS
 10
84.752762
 20
184.758396
 11
84.768608
 21
184.742722
  0
LINE
  8
2
 62
7
  6
CONTINUOUS
 10
84.768608
 20
184.742722
 11
84.790303
 21
184.721611
  0
LINE
  8
2
 62
7
  6
CONTINUOUS
 10
84.790303
 20
184.721611
 11
84.817488
 21
184.695939
  0
LINE
  8
2
 62
7
  6
CONTINUOUS
 10
84.817488
 20
184.695939
 11
84.849837
 21
184.666859
  0
LINE
  8
2
 62
7
  6
CONTINUOUS
 10
84.849837
 20
184.666859
 11
84.887081
 21
184.635766
  0
LINE
  8
2
 62
7
  6
CONTINUOUS
 10
84.887081
 20
184.635766
 11
84.928978
 21
184.604213
  0
LINE
  8
2
 62
7
  6
CONTINUOUS
 10
84.928978
 20
184.604213
 11
84.975227
 21
184.573795
  0
LINE
  8
2
 62
7
  6
CONTINUOUS
 10
84.975227
 20
184.573795
 11
85.025350
 21
184.545987
  0
LINE
  8
2
 62
7
  6
CONTINUOUS
 10
85.025350
 20
184.545987
 11
85.078547
 21
184.521987
  0
LINE
  8
2
 62
7
  6
CONTINUOUS
 10
85.078547
 20
184.521987
 11
85.133585
 21
184.502575
  0
LINE
  8
2
 62
7
  6
CONTINUOUS
 10
85.133585
 20
184.502575
 11
85.188743
 21
184.488029
  0
LINE
  8
2
 62
7
  6
CONTINUOUS
 10
85.188743
 20
184.488029
 11
85.241835
 21
184.478110
  0
LINE
  8
2
 62
7
  6
CONTINUOUS
 10
85.241835
 20
184.478110
 11
85.290344
 21
184.472137
  0
LINE
  8
2
 62
7
  6
CONTINUOUS
 10
85.290344
 20
184.472137
 11
85.331633
 21
184.469127
  0
LINE
  8
2
 62
7
  6
CONTINUOUS
 10
85.331633
 20
184.469127
 11
85.363222
 21
184.467996
  0
LINE
  8
2
 62
7
  6
CONTINUOUS
 10
85.363222
 20
184.467996
 11
85.383072
 21
184.467768
  0
LINE
  8
2
 62
7
  6
CONTINUOUS
 10
85.383072
 20
184.467768
 11
85.389845
 21
184.467772
  0
LINE
  8
2
 62
7
  6
CONTINUOUS
 10
85.389845
 20
184.467772
 11
85.396666
 21
184.467817
  0
LINE
  8
2
 62
7
  6
CONTINUOUS
 10
85.396666
 20
184.467817
 11
85.417223
 21
184.468192
  0
LINE
  8
2
 62
7
  6
CONTINUOUS
 10
85.417223
 20
184.468192
 11
85.451748
 21
184.469580
  0
LINE
  8
2
 62
7
  6
CONTINUOUS
 10
85.451748
 20
184.469580
 11
85.500449
 21
184.472999
  0
LINE
  8
2
 62
7
  6
CONTINUOUS
 10
85.500449
 20
184.472999
 11
85.563295
 21
184.479640
  0
LINE
  8
2
 62
7
  6
CONTINUOUS
 10
85.563295
 20
184.479640
 11
85.639780
 21
184.490678
  0
LINE
  8
2
 62
7
  6
CONTINUOUS
 10
85.639780
 20
184.490678
 11
85.728735
 21
184.507075
  0
LINE
  8
2
 62
7
  6
CONTINUOUS
 10
85.728735
 20
184.507075
 11
85.828219
 21
184.529408
  0
LINE
  8
2
 62
7
  6
CONTINUOUS
 10
85.828219
 20
184.529408
 11
85.935529
 21
184.557749
  0
LINE
  8
2
 62
7
  6
CONTINUOUS
 10
85.935529
 20
184.557749
 11
86.047325
 21
184.591592
  0
LINE
  8
2
 62
7
  6
CONTINUOUS
 10
86.047325
 20
184.591592
 11
86.159846
 21
184.629863
  0
LINE
  8
2
 62
7
  6
CONTINUOUS
 10
86.159846
 20
184.629863
 11
86.269186
 21
184.670983
  0
LINE
  8
2
 62
7
  6
CONTINUOUS
 10
86.269186
 20
184.670983
 11
86.371576
 21
184.712986
  0
LINE
  8
2
 62
7
  6
CONTINUOUS
 10
86.371576
 20
184.712986
 11
86.463618
 21
184.753673
  0
LINE
  8
2
 62
7
  6
CONTINUOUS
 10
86.463618
 20
184.753673
 11
86.542457
 21
184.790796
  0
LINE
  8
2
 62
7
  6
CONTINUOUS
 10
86.542457
 20
184.790796
 11
86.605854
 21
184.822224
  0
LINE
  8
2
 62
7
  6
CONTINUOUS
 10
86.605854
 20
184.822224
 11
86.652186
 21
184.846115
  0
LINE
  8
2
 62
7
  6
CONTINUOUS
 10
86.652186
 20
184.846115
 11
86.680382
 21
184.861048
  0
LINE
  8
2
 62
7
  6
CONTINUOUS
 10
86.680382
 20
184.861048
 11
86.689844
 21
184.866127
  0
LINE
  8
2
 62
7
  6
CONTINUOUS
 10
86.689844
 20
184.866127
 11
86.699294
 21
184.871234
  0
LINE
  8
2
 62
7
  6
CONTINUOUS
 10
86.699294
 20
184.871234
 11
86.727316
 21
184.886582
  0
LINE
  8
2
 62
7
  6
CONTINUOUS
 10
86.727316
 20
184.886582
 11
86.772946
 21
184.912214
  0
LINE
  8
2
 62
7
  6
CONTINUOUS
 10
86.772946
 20
184.912214
 11
86.834646
 21
184.948115
  0
LINE
  8
2
 62
7
  6
CONTINUOUS
 10
86.834646
 20
184.948115
 11
86.910393
 21
184.994095
  0
LINE
  8
2
 62
7
  6
CONTINUOUS
 10
86.910393
 20
184.994095
 11
86.997793
 21
185.049663
  0
LINE
  8
2
 62
7
  6
CONTINUOUS
 10
86.997793
 20
185.049663
 11
87.094195
 21
185.113924
  0
LINE
  8
2
 62
7
  6
CONTINUOUS
 10
87.094195
 20
185.113924
 11
87.196799
 21
185.185521
  0
LINE
  8
2
 62
7
  6
CONTINUOUS
 10
87.196799
 20
185.185521
 11
87.302751
 21
185.262629
  0
LINE
  8
2
 62
7
  6
CONTINUOUS
 10
87.302751
 20
185.262629
 11
87.409216
 21
185.343019
  0
LINE
  8
2
 62
7
  6
CONTINUOUS
 10
87.409216
 20
185.343019
 11
87.513431
 21
185.424167
  0
LINE
  8
2
 62
7
  6
CONTINUOUS
 10
87.513431
 20
185.424167
 11
87.612749
 21
185.503405
  0
LINE
  8
2
 62
7
  6
CONTINUOUS
 10
87.612749
 20
185.503405
 11
87.704673
 21
185.578081
  0
LINE
  8
2
 62
7
  6
CONTINUOUS
 10
87.704673
 20
185.578081
 11
87.786888
 21
185.645709
  0
LINE
  8
2
 62
7
  6
CONTINUOUS
 10
87.786888
 20
185.645709
 11
87.857304
 21
185.704087
  0
LINE
  8
2
 62
7
  6
CONTINUOUS
 10
87.857304
 20
185.704087
 11
87.914104
 21
185.751382
  0
LINE
  8
2
 62
7
  6
CONTINUOUS
 10
87.914104
 20
185.751382
 11
87.955799
 21
185.786167
  0
LINE
  8
2
 62
7
  6
CONTINUOUS
 10
87.955799
 20
185.786167
 11
87.981275
 21
185.807436
  0
LINE
  8
2
 62
7
  6
CONTINUOUS
 10
87.981275
 20
185.807436
 11
87.989844
 21
185.814591
  0
ARC
  8
1
 62
7
  6
CONTINUOUS
 10
150.495806
 20
190.185234
 40
0.500000
 50
180.000000
 51
-90.000000
  0
ARC
  8
1
 62
7
  6
CONTINUOUS
 10
216.095806
 20
190.185234
 40
0.500000
 50
-90.000000
 51
0.000000
  0
ARC
  8
1
 62
7
  6
CONTINUOUS
 10
214.095807
 20
223.185233
 40
2.500000
 50
0.000000
 51
90.000000
  0
LINE
  8
1
 62
7
  6
CONTINUOUS
 10
216.595806
 20
223.185233
 11
216.595806
 21
190.121233
  0
ARC
  8
1
 62
7
  6
CONTINUOUS
 10
152.495806
 20
223.185233
 40
2.500000
 50
90.000000
 51
180.000000
  0
LINE
  8
1
 62
7
  6
CONTINUOUS
 10
149.995806
 20
223.185233
 11
149.995806
 21
190.185234
  0
LINE
  8
1
 62
7
  6
CONTINUOUS
 10
160.828704
 20
226.035233
 11
160.828704
 21
225.685233
  0
LINE
  8
1
 62
7
  6
CONTINUOUS
 10
155.828704
 20
226.035233
 11
155.828704
 21
225.685233
  0
LINE
  8
1
 62
7
  6
CONTINUOUS
 10
160.828704
 20
226.035233
 11
160.828704
 21
225.685233
  0
LINE
  8
1
 62
7
  6
CONTINUOUS
 10
155.828704
 20
226.035233
 11
155.828704
 21
225.685233
  0
LINE
  8
1
 62
7
  6
CONTINUOUS
 10
152.495720
 20
225.685233
 11
155.828704
 21
225.685233
  0
ARC
  8
1
 62
7
  6
CONTINUOUS
 10
159.445720
 20
227.085233
 40
0.350000
 50
-90.000000
 51
90.000000
  0
LINE
  8
1
 62
7
  6
CONTINUOUS
 10
159.445720
 20
227.435233
 11
156.145720
 21
227.435233
  0
ARC
  8
1
 62
7
  6
CONTINUOUS
 10
156.145720
 20
227.085233
 40
0.350000
 50
90.000000
 51
-90.000000
  0
LINE
  8
1
 62
7
  6
CONTINUOUS
 10
155.495720
 20
226.735232
 11
155.495720
 21
226.035233
  0
LINE
  8
1
 62
7
  6
CONTINUOUS
 10
155.828704
 20
226.035233
 11
156.795720
 21
226.035233
  0
LINE
  8
1
 62
7
  6
CONTINUOUS
 10
155.828704
 20
226.035233
 11
156.795720
 21
226.035233
  0
LINE
  8
1
 62
7
  6
CONTINUOUS
 10
158.795720
 20
226.035233
 11
160.828704
 21
226.035233
  0
LINE
  8
1
 62
7
  6
CONTINUOUS
 10
165.593416
 20
236.836243
 11
165.520144
 21
235.438161
  0
LINE
  8
1
 62
7
  6
CONTINUOUS
 10
164.894375
 20
236.872878
 11
164.632694
 21
231.879731
  0
ARC
  8
1
 62
7
  6
CONTINUOUS
 10
164.537545
 20
231.974880
 40
0.799999
 50
-86.999997
 51
-3.000013
  0
LINE
  8
1
 62
7
  6
CONTINUOUS
 10
165.352669
 20
232.242548
 11
165.336448
 21
231.933013
  0
LINE
  8
1
 62
7
  6
CONTINUOUS
 10
160.574949
 20
230.966112
 11
164.579412
 21
231.175980
  0
LINE
  8
1
 62
7
  6
CONTINUOUS
 10
164.632695
 20
231.879731
 11
160.638178
 21
231.670388
  0
LINE
  8
1
 62
7
  6
CONTINUOUS
 10
159.881142
 20
230.829613
 11
160.095728
 21
226.735234
  0
LINE
  8
1
 62
7
  6
CONTINUOUS
 10
160.574949
 20
230.966112
 11
160.790047
 21
226.861783
  0
ARC
  8
1
 62
7
  6
CONTINUOUS
 10
160.680046
 20
230.871484
 40
0.799999
 50
93.000003
 51
-176.999874
  0
ARC
  8
1
 62
7
  6
CONTINUOUS
 10
159.991144
 20
226.819914
 40
0.799999
 50
-81.000000
 51
3.000001
  0
LINE
  8
1
 62
7
  6
CONTINUOUS
 10
164.894375
 20
236.872878
 11
165.593416
 21
236.836243
  0
LINE
  8
1
 62
7
  6
CONTINUOUS
 10
152.495806
 20
225.685233
 11
214.095807
 21
225.685233
  0
LINE
  8
1
 62
7
  6
CONTINUOUS
 10
155.495720
 20
226.735232
 11
160.095719
 21
226.735232
  0
LINE
  8
1
 62
7
  6
CONTINUOUS
 10
155.495720
 20
226.035233
 11
160.828704
 21
226.035233
  0
LINE
  8
1
 62
7
  6
CONTINUOUS
 10
150.495806
 20
189.685234
 11
216.163232
 21
189.685234
  0
ARC
  8
1
 62
7
  6
CONTINUOUS
 10
164.106566
 20
233.910048
 40
2.081667
 50
-53.229745
 51
47.229720
  0
LINE
  8
2
 62
7
  6
DASHDOT
 10
163.872405
 20
233.485232
 11
168.148806
 21
233.485232
  0
LINE
  8
2
 62
7
  6
DASHDOT
 10
157.795720
 20
228.916436
 11
157.795720
 21
224.785234
  0
LINE
  8
2
 62
7
  6
DASHDOT
 10
163.872405
 20
233.485232
 11
167.634806
 21
233.485232
  0
LINE
  8
2
 62
7
  6
DASHDOT
 10
180.795806
 20
233.485232
 11
185.795806
 21
233.485232
  0
LINE
  8
1
 62
7
  6
CONTINUOUS
 10
149.555981
 20
183.742233
 11
157.555981
 21
183.742233
  0
LINE
  8
1
 62
7
  6
CONTINUOUS
 10
154.505980
 20
189.685234
 11
154.505980
 21
183.742233
  0
LINE
  8
1
 62
7
  6
CONTINUOUS
 10
152.605982
 20
189.685234
 11
152.605982
 21
183.742233
  0
LINE
  8
2
 62
7
  6
CONTINUOUS
 10
151.094061
 20
163.428503
 11
151.307643
 21
163.367881
  0
LINE
  8
2
 62
7
  6
CONTINUOUS
 10
151.307643
 20
163.367881
 11
151.523274
 21
163.332999
  0
LINE
  8
2
 62
7
  6
CONTINUOUS
 10
151.523274
 20
163.332999
 11
151.740981
 21
163.321821
  0
LINE
  8
2
 62
7
  6
CONTINUOUS
 10
151.740981
 20
163.321821
 11
151.960592
 21
163.347223
  0
LINE
  8
2
 62
7
  6
CONTINUOUS
 10
151.960592
 20
163.347223
 11
152.182008
 21
163.416650
  0
LINE
  8
2
 62
7
  6
CONTINUOUS
 10
152.182008
 20
163.416650
 11
152.405364
 21
163.519945
  0
LINE
  8
2
 62
7
  6
CONTINUOUS
 10
152.405364
 20
163.519945
 11
152.630797
 21
163.646947
  0
LINE
  8
2
 62
7
  6
CONTINUOUS
 10
152.630797
 20
163.646947
 11
152.858440
 21
163.787497
  0
LINE
  8
2
 62
7
  6
CONTINUOUS
 10
152.858440
 20
163.787497
 11
153.088428
 21
163.931431
  0
LINE
  8
2
 62
7
  6
CONTINUOUS
 10
153.088428
 20
163.931431
 11
153.320897
 21
164.068593
  0
LINE
  8
2
 62
7
  6
CONTINUOUS
 10
153.320897
 20
164.068593
 11
153.555981
 21
164.188822
  0
LINE
  8
2
 62
7
  6
CONTINUOUS
 10
153.555981
 20
164.188822
 11
153.797873
 21
164.309051
  0
LINE
  8
2
 62
7
  6
CONTINUOUS
 10
153.797873
 20
164.309051
 11
154.048239
 21
164.446213
  0
LINE
  8
2
 62
7
  6
CONTINUOUS
 10
154.048239
 20
164.446213
 11
154.303429
 21
164.590148
  0
LINE
  8
2
 62
7
  6
CONTINUOUS
 10
154.303429
 20
164.590148
 11
154.559794
 21
164.730698
  0
LINE
  8
2
 62
7
  6
CONTINUOUS
 10
154.559794
 20
164.730698
 11
154.813681
 21
164.857700
  0
LINE
  8
2
 62
7
  6
CONTINUOUS
 10
154.813681
 20
164.857700
 11
155.061442
 21
164.960994
  0
LINE
  8
2
 62
7
  6
CONTINUOUS
 10
155.061442
 20
164.960994
 11
155.299425
 21
165.030421
  0
LINE
  8
2
 62
7
  6
CONTINUOUS
 10
155.299425
 20
165.030421
 11
155.523981
 21
165.055821
  0
LINE
  8
2
 62
7
  6
CONTINUOUS
 10
155.523981
 20
165.055821
 11
155.737785
 21
165.044645
  0
LINE
  8
2
 62
7
  6
CONTINUOUS
 10
155.737785
 20
165.044645
 11
155.945464
 21
165.009762
  0
LINE
  8
2
 62
7
  6
CONTINUOUS
 10
151.094061
 20
165.084504
 11
151.307643
 21
165.023881
  0
LINE
  8
2
 62
7
  6
CONTINUOUS
 10
151.307643
 20
165.023881
 11
151.523274
 21
164.988999
  0
LINE
  8
2
 62
7
  6
CONTINUOUS
 10
151.523274
 20
164.988999
 11
151.740981
 21
164.977822
  0
LINE
  8
2
 62
7
  6
CONTINUOUS
 10
151.740981
 20
164.977822
 11
151.960592
 21
165.003223
  0
LINE
  8
2
 62
7
  6
CONTINUOUS
 10
151.960592
 20
165.003223
 11
152.182008
 21
165.072650
  0
LINE
  8
2
 62
7
  6
CONTINUOUS
 10
152.182008
 20
165.072650
 11
152.405364
 21
165.175945
  0
LINE
  8
2
 62
7
  6
CONTINUOUS
 10
152.405364
 20
165.175945
 11
152.630797
 21
165.302947
  0
LINE
  8
2
 62
7
  6
CONTINUOUS
 10
152.630797
 20
165.302947
 11
152.858440
 21
165.443497
  0
LINE
  8
2
 62
7
  6
CONTINUOUS
 10
152.858440
 20
165.443497
 11
153.088428
 21
165.587431
  0
LINE
  8
2
 62
7
  6
CONTINUOUS
 10
153.088428
 20
165.587431
 11
153.320897
 21
165.724594
  0
LINE
  8
2
 62
7
  6
CONTINUOUS
 10
153.320897
 20
165.724594
 11
153.555981
 21
165.844823
  0
LINE
  8
2
 62
7
  6
CONTINUOUS
 10
153.555981
 20
165.844823
 11
153.797873
 21
165.965051
  0
LINE
  8
2
 62
7
  6
CONTINUOUS
 10
153.797873
 20
165.965051
 11
154.048239
 21
166.102214
  0
LINE
  8
2
 62
7
  6
CONTINUOUS
 10
154.048239
 20
166.102214
 11
154.303429
 21
166.246148
  0
LINE
  8
2
 62
7
  6
CONTINUOUS
 10
154.303429
 20
166.246148
 11
154.559794
 21
166.386698
  0
LINE
  8
2
 62
7
  6
CONTINUOUS
 10
154.559794
 20
166.386698
 11
154.813681
 21
166.513700
  0
LINE
  8
2
 62
7
  6
CONTINUOUS
 10
154.813681
 20
166.513700
 11
155.061442
 21
166.616995
  0
LINE
  8
2
 62
7
  6
CONTINUOUS
 10
155.061442
 20
166.616995
 11
155.299425
 21
166.686422
  0
LINE
  8
2
 62
7
  6
CONTINUOUS
 10
155.299425
 20
166.686422
 11
155.523981
 21
166.711822
  0
LINE
  8
2
 62
7
  6
CONTINUOUS
 10
155.523981
 20
166.711822
 11
155.737785
 21
166.700646
  0
LINE
  8
2
 62
7
  6
CONTINUOUS
 10
155.737785
 20
166.700646
 11
155.945464
 21
166.665763
  0
LINE
  8
2
 62
7
  6
CONTINUOUS
 10
155.945464
 20
165.009762
 11
156.680285
 21
164.949141
  0
LINE
  8
2
 62
7
  6
CONTINUOUS
 10
156.680285
 20
164.949141
 11
156.873519
 21
164.860747
  0
LINE
  8
2
 62
7
  6
CONTINUOUS
 10
156.873519
 20
164.860747
 11
157.058436
 21
164.742551
  0
LINE
  8
2
 62
7
  6
CONTINUOUS
 10
157.058436
 20
164.742551
 11
157.234304
 21
164.592520
  0
LINE
  8
2
 62
7
  6
CONTINUOUS
 10
157.234304
 20
164.592520
 11
157.400396
 21
164.408620
  0
LINE
  8
2
 62
7
  6
CONTINUOUS
 10
157.400396
 20
164.408620
 11
157.555981
 21
164.188822
  0
LINE
  8
2
 62
7
  6
CONTINUOUS
 10
155.945464
 20
166.665763
 11
156.680285
 21
166.605141
  0
LINE
  8
2
 62
7
  6
CONTINUOUS
 10
156.680285
 20
166.605141
 11
156.873519
 21
166.516748
  0
LINE
  8
2
 62
7
  6
CONTINUOUS
 10
156.873519
 20
166.516748
 11
157.058436
 21
166.398552
  0
LINE
  8
2
 62
7
  6
CONTINUOUS
 10
157.058436
 20
166.398552
 11
157.234304
 21
166.248520
  0
LINE
  8
2
 62
7
  6
CONTINUOUS
 10
157.234304
 20
166.248520
 11
157.400396
 21
166.064621
  0
LINE
  8
2
 62
7
  6
CONTINUOUS
 10
157.400396
 20
166.064621
 11
157.555981
 21
165.844823
  0
LINE
  8
2
 62
7
  6
CONTINUOUS
 10
149.555981
 20
164.188822
 11
149.759726
 21
163.969024
  0
LINE
  8
2
 62
7
  6
CONTINUOUS
 10
149.759726
 20
163.969024
 11
149.965387
 21
163.785125
  0
LINE
  8
2
 62
7
  6
CONTINUOUS
 10
149.965387
 20
163.785125
 11
150.172985
 21
163.635093
  0
LINE
  8
2
 62
7
  6
CONTINUOUS
 10
150.172985
 20
163.635093
 11
150.382552
 21
163.516897
  0
LINE
  8
2
 62
7
  6
CONTINUOUS
 10
150.382552
 20
163.516897
 11
151.094061
 21
163.428503
  0
LINE
  8
2
 62
7
  6
CONTINUOUS
 10
149.555981
 20
165.844823
 11
149.759726
 21
165.625025
  0
LINE
  8
2
 62
7
  6
CONTINUOUS
 10
149.759726
 20
165.625025
 11
149.965387
 21
165.441125
  0
LINE
  8
2
 62
7
  6
CONTINUOUS
 10
149.965387
 20
165.441125
 11
150.172985
 21
165.291094
  0
LINE
  8
2
 62
7
  6
CONTINUOUS
 10
150.172985
 20
165.291094
 11
150.382552
 21
165.172897
  0
LINE
  8
2
 62
7
  6
CONTINUOUS
 10
150.382552
 20
165.172897
 11
151.094061
 21
165.084504
  0
LINE
  8
1
 62
7
  6
CONTINUOUS
 10
149.555981
 20
165.844823
 11
149.555981
 21
183.742233
  0
LINE
  8
1
 62
7
  6
CONTINUOUS
 10
157.555981
 20
165.844823
 11
157.555981
 21
183.742233
  0
LINE
  8
2
 62
7
  6
HIDDEN
 10
144.846458
 20
113.551900
 11
146.532171
 21
113.551900
  0
ARC
  8
2
 62
7
  6
HIDDEN
 10
153.555981
 20
117.804281
 40
0.350000
 50
0.000000
 51
180.000000
  0
LINE
  8
2
 62
7
  6
DASHDOT
 10
149.482172
 20
120.418565
 11
149.482172
 21
127.304280
  0
LINE
  8
2
 62
7
  6
DASHDOT
 10
153.555981
 20
191.618232
 11
153.555981
 21
102.971292
  0
LINE
  8
1
 62
7
  6
CONTINUOUS
 10
149.555981
 20
145.333480
 11
157.589929
 21
145.333480
  0
LINE
  8
1
 62
7
  6
CONTINUOUS
 10
157.589929
 20
145.333480
 11
157.555981
 21
164.188822
  0
LINE
  8
1
 62
7
  6
CONTINUOUS
 10
149.555981
 20
145.333480
 11
149.555981
 21
164.188822
  0
ARC
  8
1
 62
7
  6
CONTINUOUS
 10
152.305981
 20
127.403699
 40
2.000000
 50
144.462322
 51
180.000000
  0
LINE
  8
1
 62
7
  6
CONTINUOUS
 10
150.305981
 20
126.304280
 11
150.305981
 21
127.403699
  0
ARC
  8
1
 62
7
  6
CONTINUOUS
 10
153.805981
 20
126.923001
 40
2.000000
 50
144.462322
 51
180.000000
  0
LINE
  8
1
 62
7
  6
CONTINUOUS
 10
151.805981
 20
126.304280
 11
151.805981
 21
126.923001
  0
ARC
  8
1
 62
7
  6
CONTINUOUS
 10
153.305981
 20
126.923002
 40
2.000000
 50
0.000000
 51
35.537673
  0
LINE
  8
1
 62
7
  6
CONTINUOUS
 10
155.305981
 20
126.304280
 11
155.305981
 21
126.923002
  0
ARC
  8
1
 62
7
  6
CONTINUOUS
 10
154.805981
 20
127.403699
 40
2.000000
 50
0.000000
 51
35.537678
  0
LINE
  8
1
 62
7
  6
CONTINUOUS
 10
156.805981
 20
126.304280
 11
156.805981
 21
127.403699
  0
ARC
  8
1
 62
7
  6
CONTINUOUS
 10
150.805981
 20
132.185559
 40
2.000000
 50
-35.537675
 51
0.000000
  0
LINE
  8
1
 62
7
  6
CONTINUOUS
 10
152.805981
 20
145.333480
 11
152.805981
 21
132.185559
  0
LINE
  8
1
 62
7
  6
CONTINUOUS
 10
150.678515
 20
128.566176
 11
152.433448
 21
131.023083
  0
ARC
  8
1
 62
7
  6
CONTINUOUS
 10
152.305981
 20
131.704861
 40
2.000000
 50
-35.537675
 51
0.000000
  0
LINE
  8
1
 62
7
  6
CONTINUOUS
 10
152.178515
 20
128.085477
 11
153.933448
 21
130.542384
  0
ARC
  8
1
 62
7
  6
CONTINUOUS
 10
156.305981
 20
132.185559
 40
2.000000
 50
180.000000
 51
-144.462325
  0
LINE
  8
1
 62
7
  6
CONTINUOUS
 10
154.678514
 20
131.023083
 11
156.433448
 21
128.566176
  0
LINE
  8
1
 62
7
  6
CONTINUOUS
 10
154.305981
 20
145.333480
 11
154.305981
 21
131.704861
  0
LINE
  8
1
 62
7
  6
CONTINUOUS
 10
154.933448
 20
128.085479
 11
153.555981
 21
130.013933
  0
LINE
  8
1
 62
7
  6
CONTINUOUS
 10
149.903600
 20
121.418565
 11
149.060743
 21
121.418565
  0
LINE
  8
1
 62
7
  6
CONTINUOUS
 10
147.655981
 20
121.699518
 11
146.813124
 21
121.699518
  0
LINE
  8
1
 62
7
  6
CONTINUOUS
 10
146.813124
 20
121.699518
 11
146.813124
 21
122.487266
  0
LINE
  8
1
 62
7
  6
CONTINUOUS
 10
146.813124
 20
122.487266
 11
147.655981
 21
123.947138
  0
ARC
  8
1
 62
7
  6
CONTINUOUS
 10
147.094077
 20
119.732851
 40
0.565051
 50
0.000000
 51
180.000000
  0
LINE
  8
1
 62
7
  6
CONTINUOUS
 10
146.532171
 20
119.732851
 11
146.532171
 21
108.494757
  0
LINE
  8
1
 62
7
  6
CONTINUOUS
 10
145.127410
 20
117.485232
 11
145.127410
 21
108.494757
  0
LINE
  8
1
 62
7
  6
CONTINUOUS
 10
144.565506
 20
115.518567
 11
144.846457
 21
115.518567
  0
LINE
  8
1
 62
7
  6
CONTINUOUS
 10
144.846457
 20
115.518567
 11
144.846457
 21
113.551900
  0
ARC
  8
1
 62
7
  6
CONTINUOUS
 10
144.846457
 20
113.270947
 40
0.280953
 50
0.000000
 51
90.000000
  0
LINE
  8
1
 62
7
  6
CONTINUOUS
 10
145.127410
 20
110.180471
 11
146.532171
 21
109.899518
  0
LINE
  8
1
 62
7
  6
CONTINUOUS
 10
144.565506
 20
115.518567
 11
144.565506
 21
116.361422
  0
LINE
  8
1
 62
7
  6
CONTINUOUS
 10
144.155981
 20
117.485232
 11
144.155981
 21
116.361422
  0
ARC
  8
1
 62
7
  6
CONTINUOUS
 10
145.005981
 20
122.840426
 40
0.850000
 50
119.999988
 51
180.000000
  0
LINE
  8
1
 62
7
  6
CONTINUOUS
 10
144.155981
 20
117.485232
 11
144.155981
 21
122.840426
  0
LINE
  8
1
 62
7
  6
CONTINUOUS
 10
144.565506
 20
116.361422
 11
144.155981
 21
116.361422
  0
LINE
  8
1
 62
7
  6
CONTINUOUS
 10
146.532171
 20
117.485232
 11
144.155981
 21
117.485232
  0
LINE
  8
1
 62
7
  6
CONTINUOUS
 10
146.532171
 20
117.906662
 11
144.155981
 21
117.906662
  0
LINE
  8
1
 62
7
  6
CONTINUOUS
 10
149.155981
 20
105.685232
 11
149.436932
 21
105.404280
  0
LINE
  8
1
 62
7
  6
CONTINUOUS
 10
149.155981
 20
105.685232
 11
149.155981
 21
114.736595
  0
LINE
  8
1
 62
7
  6
CONTINUOUS
 10
148.217885
 20
116.361424
 11
149.155981
 21
114.736595
  0
LINE
  8
1
 62
7
  6
CONTINUOUS
 10
152.925030
 20
105.404280
 11
153.205981
 21
105.685232
  0
LINE
  8
1
 62
7
  6
CONTINUOUS
 10
149.436932
 20
105.404280
 11
152.925030
 21
105.404280
  0
LINE
  8
1
 62
7
  6
CONTINUOUS
 10
149.155981
 20
105.685232
 11
153.205981
 21
105.685232
  0
LINE
  8
1
 62
7
  6
CONTINUOUS
 10
153.905981
 20
105.685232
 11
154.186934
 21
105.404280
  0
LINE
  8
1
 62
7
  6
CONTINUOUS
 10
157.955981
 20
106.106660
 11
158.517885
 21
106.106660
  0
LINE
  8
1
 62
7
  6
CONTINUOUS
 10
157.675028
 20
105.404280
 11
157.955981
 21
105.685232
  0
LINE
  8
1
 62
7
  6
CONTINUOUS
 10
154.186934
 20
105.404280
 11
157.675028
 21
105.404280
  0
LINE
  8
1
 62
7
  6
CONTINUOUS
 10
153.905981
 20
105.685232
 11
157.955981
 21
105.685232
  0
LINE
  8
1
 62
7
  6
CONTINUOUS
 10
157.955981
 20
105.685232
 11
157.955981
 21
114.736594
  0
LINE
  8
1
 62
7
  6
CONTINUOUS
 10
158.517885
 20
106.106660
 11
158.517885
 21
115.709840
  0
LINE
  8
1
 62
7
  6
CONTINUOUS
 10
158.894077
 20
116.361424
 11
157.955981
 21
114.736594
  0
LINE
  8
1
 62
7
  6
CONTINUOUS
 10
147.655981
 20
126.304280
 11
159.455981
 21
126.304280
  0
LINE
  8
1
 62
7
  6
CONTINUOUS
 10
149.060743
 20
121.418565
 11
149.060743
 21
126.304280
  0
LINE
  8
1
 62
7
  6
CONTINUOUS
 10
149.903600
 20
121.418565
 11
149.903600
 21
126.304280
  0
LINE
  8
1
 62
7
  6
CONTINUOUS
 10
159.455981
 20
117.804281
 11
147.655981
 21
117.804281
  0
LINE
  8
1
 62
7
  6
CONTINUOUS
 10
153.205981
 20
105.685232
 11
153.205981
 21
117.804281
  0
LINE
  8
1
 62
7
  6
CONTINUOUS
 10
153.905981
 20
105.685232
 11
153.905981
 21
117.804281
  0
LINE
  8
1
 62
7
  6
CONTINUOUS
 10
158.894077
 20
116.361424
 11
158.894077
 21
117.804281
  0
LINE
  8
1
 62
7
  6
CONTINUOUS
 10
147.655981
 20
126.304280
 11
147.655981
 21
117.804281
  0
LINE
  8
1
 62
7
  6
CONTINUOUS
 10
148.217885
 20
116.361424
 11
148.217885
 21
117.804281
  0
LINE
  8
1
 62
7
  6
CONTINUOUS
 10
145.536339
 20
107.404281
 11
146.123243
 21
107.404281
  0
LINE
  8
1
 62
7
  6
CONTINUOUS
 10
145.127410
 20
108.494757
 11
145.536339
 21
107.404281
  0
LINE
  8
1
 62
7
  6
CONTINUOUS
 10
146.532171
 20
108.494757
 11
146.123243
 21
107.404281
  0
LINE
  8
1
 62
7
  6
CONTINUOUS
 10
147.655981
 20
125.351899
 11
146.705982
 21
124.803417
  0
LINE
  8
1
 62
7
  6
CONTINUOUS
 10
146.705982
 20
124.803417
 11
144.580981
 21
123.576548
  0
LINE
  8
1
 62
7
  6
CONTINUOUS
 10
159.455981
 20
121.699518
 11
160.298838
 21
121.699518
  0
LINE
  8
1
 62
7
  6
CONTINUOUS
 10
160.298838
 20
122.487266
 11
159.455981
 21
123.947138
  0
LINE
  8
1
 62
7
  6
CONTINUOUS
 10
159.455981
 20
126.304280
 11
159.455981
 21
117.804281
  0
LINE
  8
1
 62
7
  6
CONTINUOUS
 10
160.298838
 20
122.487266
 11
160.298838
 21
121.699518
  0
LINE
  8
1
 62
7
  6
CONTINUOUS
 10
84.739845
 20
225.685233
 11
115.539845
 21
225.685233
  0
ARC
  8
1
 62
7
  6
CONTINUOUS
 10
53.939844
 20
223.185233
 40
2.500000
 50
90.000000
 51
180.000000
  0
LINE
  8
1
 62
7
  6
CONTINUOUS
 10
53.939758
 20
225.685233
 11
57.272742
 21
225.685233
  0
ARC
  8
1
 62
7
  6
CONTINUOUS
 10
115.539845
 20
223.185233
 40
2.500000
 50
0.000000
 51
90.000000
  0
LINE
  8
1
 62
7
  6
CONTINUOUS
 10
53.939844
 20
225.685233
 11
84.739845
 21
225.685233
  0
LINE
  8
1
 62
7
  6
CONTINUOUS
 10
51.439844
 20
223.185233
 11
51.439844
 21
189.685234
  0
LINE
  8
1
 62
7
  6
CONTINUOUS
 10
118.039845
 20
223.185233
 11
118.039845
 21
189.685234
  0
LINE
  8
1
 62
7
  6
CONTINUOUS
 10
51.439844
 20
189.685234
 11
118.039845
 21
189.685234
  0
LINE
  8
1
 62
7
  6
CONTINUOUS
 10
78.239845
 20
226.035233
 11
91.239844
 21
226.035233
  0
LINE
  8
1
 62
7
  6
CONTINUOUS
 10
91.239844
 20
226.035233
 11
91.239844
 21
225.685233
  0
LINE
  8
1
 62
7
  6
CONTINUOUS
 10
80.739845
 20
226.735232
 11
88.739844
 21
226.735232
  0
LINE
  8
1
 62
7
  6
CONTINUOUS
 10
88.739844
 20
226.735232
 11
88.739844
 21
226.035233
  0
LINE
  8
1
 62
7
  6
CONTINUOUS
 10
90.027345
 20
226.035233
 11
90.027345
 21
226.685233
  0
LINE
  8
1
 62
7
  6
CONTINUOUS
 10
90.027345
 20
226.685233
 11
88.739844
 21
226.685233
  0
ARC
  8
1
 62
7
  6
CONTINUOUS
 10
86.539845
 20
227.235232
 40
0.199999
 50
0.000000
 51
90.000000
  0
LINE
  8
1
 62
7
  6
CONTINUOUS
 10
82.939844
 20
227.435231
 11
86.539845
 21
227.435231
  0
ARC
  8
1
 62
7
  6
CONTINUOUS
 10
86.539845
 20
226.935231
 40
0.199999
 50
-90.000000
 51
0.000000
  0
LINE
  8
1
 62
7
  6
CONTINUOUS
 10
86.739845
 20
227.235232
 11
86.739845
 21
226.935231
  0
LINE
  8
1
 62
7
  6
CONTINUOUS
 10
88.739844
 20
233.919677
 11
88.739844
 21
226.735232
  0
LINE
  8
1
 62
7
  6
CONTINUOUS
 10
80.739845
 20
226.035233
 11
80.739845
 21
233.919677
  0
LINE
  8
1
 62
7
  6
CONTINUOUS
 10
78.239845
 20
225.685233
 11
78.239845
 21
226.035233
  0
LINE
  8
1
 62
7
  6
CONTINUOUS
 10
79.452344
 20
226.035233
 11
79.452344
 21
226.685233
  0
LINE
  8
1
 62
7
  6
CONTINUOUS
 10
79.452344
 20
226.685233
 11
80.739845
 21
226.685233
  0
ARC
  8
1
 62
7
  6
CONTINUOUS
 10
82.939844
 20
227.235232
 40
0.199999
 50
90.000000
 51
180.000000
  0
ARC
  8
1
 62
7
  6
CONTINUOUS
 10
82.939844
 20
226.935231
 40
0.199999
 50
180.000000
 51
-90.000000
  0
LINE
  8
1
 62
7
  6
CONTINUOUS
 10
82.739845
 20
226.935231
 11
82.739845
 21
227.235232
  0
LINE
  8
1
 62
7
  6
CONTINUOUS
 10
81.489845
 20
189.685234
 11
81.489845
 21
184.866127
  0
LINE
  8
1
 62
7
  6
CONTINUOUS
 10
82.789845
 20
185.586959
 11
82.789845
 21
189.685234
  0
LINE
  8
1
 62
7
  6
CONTINUOUS
 10
84.089844
 20
189.685234
 11
84.089844
 21
185.283451
  0
LINE
  8
1
 62
7
  6
CONTINUOUS
 10
85.389845
 20
184.469127
 11
85.389845
 21
189.685234
  0
LINE
  8
1
 62
7
  6
CONTINUOUS
 10
86.689844
 20
189.685234
 11
86.689844
 21
184.866127
  0
LINE
  8
1
 62
7
  6
CONTINUOUS
 10
87.989844
 20
185.814591
 11
87.989844
 21
189.685234
  0
LINE
  8
2
 62
7
  6
CONTINUOUS
 10
79.828759
 20
148.953753
 11
79.694293
 21
148.735827
  0
LINE
  8
2
 62
7
  6
CONTINUOUS
 10
79.694293
 20
148.735827
 11
79.694293
 21
148.564267
  0
LINE
  8
2
 62
7
  6
CONTINUOUS
 10
79.694293
 20
148.564267
 11
80.055958
 21
147.947581
  0
LINE
  8
2
 62
7
  6
CONTINUOUS
 10
80.055958
 20
147.947581
 11
80.004955
 21
147.854847
  0
LINE
  8
2
 62
7
  6
CONTINUOUS
 10
80.004955
 20
147.854847
 11
79.221346
 21
147.854847
  0
LINE
  8
2
 62
7
  6
CONTINUOUS
 10
79.221346
 20
147.854847
 11
79.031240
 21
147.548823
  0
LINE
  8
2
 62
7
  6
CONTINUOUS
 10
80.213608
 20
147.613736
 11
80.371256
 21
147.891942
  0
LINE
  8
2
 62
7
  6
CONTINUOUS
 10
80.371256
 20
147.891942
 11
80.380529
 21
148.040316
  0
LINE
  8
2
 62
7
  6
CONTINUOUS
 10
80.380529
 20
148.040316
 11
80.000319
 21
148.652365
  0
LINE
  8
2
 62
7
  6
CONTINUOUS
 10
80.000319
 20
148.652365
 11
80.046686
 21
148.735827
  0
LINE
  8
2
 62
7
  6
CONTINUOUS
 10
80.046686
 20
148.735827
 11
80.881296
 21
148.735827
  0
LINE
  8
2
 62
7
  6
CONTINUOUS
 10
80.881296
 20
148.735827
 11
81.048221
 21
149.037213
  0
LINE
  8
2
 62
7
  6
CONTINUOUS
 10
81.293967
 20
148.921295
 11
80.519632
 21
147.548823
  0
LINE
  8
2
 62
7
  6
CONTINUOUS
 10
80.895207
 20
147.548823
 11
81.521167
 21
148.633818
  0
LINE
  8
2
 62
7
  6
CONTINUOUS
 10
81.521167
 20
148.633818
 11
81.558261
 21
148.633818
  0
LINE
  8
2
 62
7
  6
CONTINUOUS
 10
81.558261
 20
148.633818
 11
81.558261
 21
147.854847
  0
LINE
  8
2
 62
7
  6
CONTINUOUS
 10
81.558261
 20
147.854847
 11
81.317150
 21
147.854847
  0
LINE
  8
2
 62
7
  6
CONTINUOUS
 10
81.317150
 20
147.854847
 11
81.317150
 21
147.548823
  0
LINE
  8
2
 62
7
  6
CONTINUOUS
 10
81.859648
 20
147.720382
 11
81.859648
 21
148.870292
  0
LINE
  8
2
 62
7
  6
CONTINUOUS
 10
81.994113
 20
148.870292
 11
81.994113
 21
147.720382
  0
LINE
  8
2
 62
7
  6
CONTINUOUS
 10
83.269214
 20
147.780659
 11
83.037380
 21
148.360252
  0
LINE
  8
2
 62
7
  6
CONTINUOUS
 10
83.037380
 20
148.360252
 11
82.671078
 21
148.360252
  0
LINE
  8
2
 62
7
  6
CONTINUOUS
 10
82.671078
 20
148.360252
 11
82.671078
 21
148.058863
  0
LINE
  8
2
 62
7
  6
CONTINUOUS
 10
82.671078
 20
148.058863
 11
82.833362
 21
148.058863
  0
LINE
  8
2
 62
7
  6
CONTINUOUS
 10
82.833362
 20
148.058863
 11
82.912186
 21
147.854847
  0
LINE
  8
2
 62
7
  6
CONTINUOUS
 10
82.912186
 20
147.854847
 11
82.300138
 21
147.854847
  0
LINE
  8
2
 62
7
  6
CONTINUOUS
 10
82.300138
 20
147.854847
 11
82.300138
 21
148.735827
  0
LINE
  8
2
 62
7
  6
CONTINUOUS
 10
82.300138
 20
148.735827
 11
83.213575
 21
148.735827
  0
LINE
  8
2
 62
7
  6
CONTINUOUS
 10
83.213575
 20
148.735827
 11
83.213575
 21
149.037213
  0
LINE
  8
2
 62
7
  6
CONTINUOUS
 10
83.450049
 20
149.037213
 11
83.450049
 21
147.548823
  0
LINE
  8
2
 62
7
  6
CONTINUOUS
 10
83.756073
 20
147.548823
 11
83.756073
 21
149.037213
  0
LINE
  8
2
 62
7
  6
CONTINUOUS
 10
83.890538
 20
148.494715
 11
83.890538
 21
147.548823
  0
LINE
  8
2
 62
7
  6
CONTINUOUS
 10
84.164104
 20
147.548823
 11
84.164104
 21
148.207238
  0
LINE
  8
2
 62
7
  6
CONTINUOUS
 10
84.164104
 20
148.207238
 11
84.437674
 21
148.207238
  0
LINE
  8
2
 62
7
  6
CONTINUOUS
 10
84.437674
 20
148.207238
 11
84.437674
 21
147.548823
  0
LINE
  8
2
 62
7
  6
CONTINUOUS
 10
84.701967
 20
147.548823
 11
84.701967
 21
148.327795
  0
LINE
  8
2
 62
7
  6
CONTINUOUS
 10
84.701967
 20
148.327795
 11
84.535043
 21
148.494715
  0
LINE
  8
2
 62
7
  6
CONTINUOUS
 10
84.535043
 20
148.494715
 11
84.331029
 21
148.494715
  0
LINE
  8
2
 62
7
  6
CONTINUOUS
 10
84.331029
 20
148.494715
 11
84.164104
 21
148.327795
  0
LINE
  8
2
 62
7
  6
CONTINUOUS
 10
84.164104
 20
148.327795
 11
84.164104
 21
148.494715
  0
LINE
  8
2
 62
7
  6
CONTINUOUS
 10
84.164104
 20
148.494715
 11
83.890538
 21
148.494715
  0
LINE
  8
2
 62
7
  6
CONTINUOUS
 10
85.007991
 20
148.494715
 11
84.841069
 21
148.327795
  0
LINE
  8
2
 62
7
  6
CONTINUOUS
 10
84.841069
 20
148.327795
 11
84.841069
 21
147.720382
  0
LINE
  8
2
 62
7
  6
CONTINUOUS
 10
85.652496
 20
147.720382
 11
85.652496
 21
148.327795
  0
LINE
  8
2
 62
7
  6
CONTINUOUS
 10
85.652496
 20
148.327795
 11
85.480939
 21
148.494715
  0
LINE
  8
2
 62
7
  6
CONTINUOUS
 10
85.480939
 20
148.494715
 11
85.007991
 21
148.494715
  0
LINE
  8
2
 62
7
  6
CONTINUOUS
 10
85.109998
 20
148.225786
 11
85.109998
 21
147.817753
  0
LINE
  8
2
 62
7
  6
CONTINUOUS
 10
85.109998
 20
147.817753
 11
85.378930
 21
147.817753
  0
LINE
  8
2
 62
7
  6
CONTINUOUS
 10
85.378930
 20
147.817753
 11
85.378930
 21
148.225786
  0
LINE
  8
2
 62
7
  6
CONTINUOUS
 10
85.378930
 20
148.225786
 11
85.109998
 21
148.225786
  0
LINE
  8
2
 62
7
  6
CONTINUOUS
 10
85.786962
 20
148.870292
 11
85.786962
 21
147.548823
  0
LINE
  8
2
 62
7
  6
CONTINUOUS
 10
86.055894
 20
147.548823
 11
86.055894
 21
148.768283
  0
LINE
  8
2
 62
7
  6
CONTINUOUS
 10
86.055894
 20
148.768283
 11
86.185721
 21
148.768283
  0
LINE
  8
2
 62
7
  6
CONTINUOUS
 10
86.185721
 20
148.768283
 11
86.385101
 21
147.687926
  0
LINE
  8
2
 62
7
  6
CONTINUOUS
 10
86.946146
 20
147.687926
 11
87.150162
 21
148.768283
  0
LINE
  8
2
 62
7
  6
CONTINUOUS
 10
87.150162
 20
148.768283
 11
87.275354
 21
148.768283
  0
LINE
  8
2
 62
7
  6
CONTINUOUS
 10
87.275354
 20
148.768283
 11
87.275354
 21
147.548823
  0
LINE
  8
2
 62
7
  6
CONTINUOUS
 10
87.548921
 20
147.548823
 11
87.548921
 21
148.870292
  0
LINE
  8
2
 62
7
  6
CONTINUOUS
 10
86.820955
 20
148.870292
 11
86.667942
 21
147.956855
  0
LINE
  8
2
 62
7
  6
CONTINUOUS
 10
86.667942
 20
147.956855
 11
86.501019
 21
148.870292
  0
LINE
  8
2
 62
7
  6
CONTINUOUS
 10
87.683387
 20
149.037213
 11
87.683387
 21
147.548823
  0
LINE
  8
2
 62
7
  6
CONTINUOUS
 10
87.952317
 20
147.548823
 11
87.952317
 21
149.037213
  0
LINE
  8
2
 62
7
  6
CONTINUOUS
 10
88.086784
 20
149.037213
 11
88.731289
 21
148.225786
  0
LINE
  8
2
 62
7
  6
CONTINUOUS
 10
88.731289
 20
148.225786
 11
88.513362
 21
147.817753
  0
LINE
  8
2
 62
7
  6
CONTINUOUS
 10
88.513362
 20
147.817753
 11
88.086784
 21
147.817753
  0
LINE
  8
2
 62
7
  6
CONTINUOUS
 10
88.086784
 20
147.817753
 11
88.086784
 21
147.548823
  0
LINE
  8
2
 62
7
  6
CONTINUOUS
 10
88.777657
 20
147.632283
 11
89.579810
 21
149.037213
  0
LINE
  8
2
 62
7
  6
CONTINUOUS
 10
89.204235
 20
149.037213
 11
88.902848
 21
148.531809
  0
LINE
  8
2
 62
7
  6
CONTINUOUS
 10
88.902848
 20
148.531809
 11
88.494815
 21
149.037213
  0
LINE
  8
2
 62
7
  6
CONTINUOUS
 10
89.858016
 20
148.953753
 11
89.051225
 21
147.548823
  0
LINE
  8
2
 62
7
  6
CONTINUOUS
 10
89.422162
 20
147.548823
 11
90.052758
 21
148.633818
  0
LINE
  8
2
 62
7
  6
CONTINUOUS
 10
90.052758
 20
148.633818
 11
90.085214
 21
148.633818
  0
LINE
  8
2
 62
7
  6
CONTINUOUS
 10
90.085214
 20
148.633818
 11
90.085214
 21
147.854847
  0
LINE
  8
2
 62
7
  6
CONTINUOUS
 10
90.085214
 20
147.854847
 11
89.848742
 21
147.854847
  0
LINE
  8
2
 62
7
  6
CONTINUOUS
 10
89.848742
 20
147.854847
 11
89.848742
 21
147.548823
  0
LINE
  8
2
 62
7
  6
CONTINUOUS
 10
90.391240
 20
147.720382
 11
90.391240
 21
148.870292
  0
LINE
  8
2
 62
7
  6
CONTINUOUS
 10
81.048221
 20
149.037213
 11
79.972498
 21
149.037213
  0
LINE
  8
2
 62
7
  6
CONTINUOUS
 10
79.972498
 20
149.037213
 11
79.828759
 21
148.953753
  0
LINE
  8
2
 62
7
  6
CONTINUOUS
 10
81.048221
 20
149.037213
 11
79.972498
 21
149.037213
  0
LINE
  8
2
 62
7
  6
CONTINUOUS
 10
81.456252
 20
149.037213
 11
81.293967
 21
148.921295
  0
LINE
  8
2
 62
7
  6
CONTINUOUS
 10
81.859648
 20
148.870292
 11
81.692726
 21
149.037213
  0
LINE
  8
2
 62
7
  6
CONTINUOUS
 10
81.692726
 20
149.037213
 11
81.456252
 21
149.037213
  0
LINE
  8
2
 62
7
  6
CONTINUOUS
 10
82.165674
 20
149.037213
 11
81.994113
 21
148.870292
  0
LINE
  8
2
 62
7
  6
CONTINUOUS
 10
83.213575
 20
149.037213
 11
82.165674
 21
149.037213
  0
LINE
  8
2
 62
7
  6
CONTINUOUS
 10
83.756073
 20
149.037213
 11
83.450049
 21
149.037213
  0
LINE
  8
2
 62
7
  6
CONTINUOUS
 10
85.958522
 20
149.037213
 11
85.786962
 21
148.870292
  0
LINE
  8
2
 62
7
  6
CONTINUOUS
 10
87.548921
 20
148.870292
 11
87.377362
 21
149.037213
  0
LINE
  8
2
 62
7
  6
CONTINUOUS
 10
87.377362
 20
149.037213
 11
86.997151
 21
149.037213
  0
LINE
  8
2
 62
7
  6
CONTINUOUS
 10
86.997151
 20
149.037213
 11
86.820955
 21
148.870292
  0
LINE
  8
2
 62
7
  6
CONTINUOUS
 10
86.501019
 20
148.870292
 11
86.385101
 21
149.037213
  0
LINE
  8
2
 62
7
  6
CONTINUOUS
 10
86.385101
 20
149.037213
 11
85.958522
 21
149.037213
  0
LINE
  8
2
 62
7
  6
CONTINUOUS
 10
87.952317
 20
149.037213
 11
87.683387
 21
149.037213
  0
LINE
  8
2
 62
7
  6
CONTINUOUS
 10
89.579810
 20
149.037213
 11
89.204235
 21
149.037213
  0
LINE
  8
2
 62
7
  6
CONTINUOUS
 10
88.494815
 20
149.037213
 11
88.086784
 21
149.037213
  0
LINE
  8
2
 62
7
  6
CONTINUOUS
 10
90.001754
 20
149.037213
 11
89.858016
 21
148.953753
  0
LINE
  8
2
 62
7
  6
CONTINUOUS
 10
90.391240
 20
148.870292
 11
90.219681
 21
149.037213
  0
LINE
  8
2
 62
7
  6
CONTINUOUS
 10
90.219681
 20
149.037213
 11
90.001754
 21
149.037213
  0
LINE
  8
2
 62
7
  6
CONTINUOUS
 10
79.031240
 20
147.548823
 11
80.079143
 21
147.548823
  0
LINE
  8
2
 62
7
  6
CONTINUOUS
 10
80.079143
 20
147.548823
 11
80.213608
 21
147.613736
  0
LINE
  8
2
 62
7
  6
CONTINUOUS
 10
80.519632
 20
147.548823
 11
80.895207
 21
147.548823
  0
LINE
  8
2
 62
7
  6
CONTINUOUS
 10
81.317150
 20
147.548823
 11
81.692726
 21
147.548823
  0
LINE
  8
2
 62
7
  6
CONTINUOUS
 10
81.692726
 20
147.548823
 11
81.859648
 21
147.720382
  0
LINE
  8
2
 62
7
  6
CONTINUOUS
 10
81.994113
 20
147.720382
 11
82.165674
 21
147.548823
  0
LINE
  8
2
 62
7
  6
CONTINUOUS
 10
82.165674
 20
147.548823
 11
83.111566
 21
147.548823
  0
LINE
  8
2
 62
7
  6
CONTINUOUS
 10
83.111566
 20
147.548823
 11
83.269214
 21
147.780659
  0
LINE
  8
2
 62
7
  6
CONTINUOUS
 10
83.450049
 20
147.548823
 11
83.756073
 21
147.548823
  0
LINE
  8
2
 62
7
  6
CONTINUOUS
 10
83.890538
 20
147.548823
 11
84.164104
 21
147.548823
  0
LINE
  8
2
 62
7
  6
CONTINUOUS
 10
84.437674
 20
147.548823
 11
84.701967
 21
147.548823
  0
LINE
  8
2
 62
7
  6
CONTINUOUS
 10
84.841069
 20
147.720382
 11
85.007991
 21
147.548823
  0
LINE
  8
2
 62
7
  6
CONTINUOUS
 10
85.007991
 20
147.548823
 11
85.480939
 21
147.548823
  0
LINE
  8
2
 62
7
  6
CONTINUOUS
 10
85.480939
 20
147.548823
 11
85.652496
 21
147.720382
  0
LINE
  8
2
 62
7
  6
CONTINUOUS
 10
85.786962
 20
147.548823
 11
86.055894
 21
147.548823
  0
LINE
  8
2
 62
7
  6
CONTINUOUS
 10
86.385101
 20
147.687926
 11
86.552023
 21
147.548823
  0
LINE
  8
2
 62
7
  6
CONTINUOUS
 10
86.552023
 20
147.548823
 11
86.779225
 21
147.548823
  0
LINE
  8
2
 62
7
  6
CONTINUOUS
 10
86.779225
 20
147.548823
 11
86.946146
 21
147.687926
  0
LINE
  8
2
 62
7
  6
CONTINUOUS
 10
87.275354
 20
147.548823
 11
87.548921
 21
147.548823
  0
LINE
  8
2
 62
7
  6
CONTINUOUS
 10
87.683387
 20
147.548823
 11
87.952317
 21
147.548823
  0
LINE
  8
2
 62
7
  6
CONTINUOUS
 10
88.086784
 20
147.548823
 11
88.629280
 21
147.548823
  0
LINE
  8
2
 62
7
  6
CONTINUOUS
 10
88.629280
 20
147.548823
 11
88.777657
 21
147.632283
  0
LINE
  8
2
 62
7
  6
CONTINUOUS
 10
89.051225
 20
147.548823
 11
89.422162
 21
147.548823
  0
LINE
  8
2
 62
7
  6
CONTINUOUS
 10
89.848742
 20
147.548823
 11
90.219681
 21
147.548823
  0
LINE
  8
2
 62
7
  6
CONTINUOUS
 10
90.219681
 20
147.548823
 11
90.391240
 21
147.720382
  0
LINE
  8
1
 62
7
  6
CONTINUOUS
 10
74.239845
 20
127.548823
 11
73.739845
 21
128.048823
  0
LINE
  8
1
 62
7
  6
CONTINUOUS
 10
95.739844
 20
128.048823
 11
95.239844
 21
127.548823
  0
ARC
  8
1
 62
7
  6
CONTINUOUS
 10
76.089843
 20
126.548823
 40
1.000000
 50
0.000000
 51
90.000000
  0
ARC
  8
1
 62
7
  6
CONTINUOUS
 10
93.389846
 20
126.548823
 40
1.000000
 50
90.000000
 51
180.000000
  0
LINE
  8
1
 62
7
  6
CONTINUOUS
 10
106.739845
 20
164.048822
 11
105.739845
 21
165.048822
  0
LINE
  8
1
 62
7
  6
CONTINUOUS
 10
62.739844
 20
164.048822
 11
63.739844
 21
165.048822
  0
LINE
  8
1
 62
7
  6
CONTINUOUS
 10
63.739844
 20
138.548822
 11
62.739844
 21
139.548822
  0
LINE
  8
1
 62
7
  6
CONTINUOUS
 10
62.739844
 20
139.548822
 11
62.739844
 21
164.048822
  0
LINE
  8
1
 62
7
  6
CONTINUOUS
 10
106.739845
 20
139.548822
 11
105.739845
 21
138.548822
  0
ARC
  8
1
 62
7
  6
CONTINUOUS
 10
96.239844
 20
138.048822
 40
0.500000
 50
90.000000
 51
180.000000
  0
LINE
  8
1
 62
7
  6
CONTINUOUS
 10
95.739844
 20
138.048822
 11
95.739844
 21
128.048823
  0
ARC
  8
1
 62
7
  6
CONTINUOUS
 10
101.239845
 20
165.548822
 40
0.500000
 50
180.000000
 51
-90.000000
  0
LINE
  8
1
 62
7
  6
CONTINUOUS
 10
101.239845
 20
165.048822
 11
105.739845
 21
165.048822
  0
ARC
  8
1
 62
7
  6
CONTINUOUS
 10
68.239844
 20
165.548822
 40
0.500000
 50
-90.000000
 51
0.000000
  0
LINE
  8
1
 62
7
  6
CONTINUOUS
 10
68.239844
 20
165.048822
 11
63.739844
 21
165.048822
  0
LINE
  8
1
 62
7
  6
CONTINUOUS
 10
68.739844
 20
165.548822
 11
68.739844
 21
175.048720
  0
LINE
  8
1
 62
7
  6
CONTINUOUS
 10
68.239844
 20
165.048822
 11
84.739845
 21
165.048822
  0
LINE
  8
1
 62
7
  6
CONTINUOUS
 10
74.239845
 20
127.548823
 11
95.239844
 21
127.548823
  0
LINE
  8
1
 62
7
  6
CONTINUOUS
 10
106.739845
 20
164.048822
 11
106.739845
 21
139.548822
  0
LINE
  8
1
 62
7
  6
CONTINUOUS
 10
100.739845
 20
165.548822
 11
100.739845
 21
175.048720
  0
ARC
  8
1
 62
7
  6
CONTINUOUS
 10
101.239845
 20
165.548822
 40
0.500000
 50
180.000000
 51
-90.000000
  0
LINE
  8
1
 62
7
  6
CONTINUOUS
 10
101.239845
 20
165.048822
 11
105.739845
 21
165.048822
  0
LINE
  8
1
 62
7
  6
CONTINUOUS
 10
101.239845
 20
165.048822
 11
84.739845
 21
165.048822
  0
LINE
  8
1
 62
7
  6
CONTINUOUS
 10
63.739844
 20
138.548824
 11
105.739845
 21
138.548824
  0
LINE
  8
1
 62
7
  6
CONTINUOUS
 10
62.739844
 20
139.548824
 11
106.739845
 21
139.548824
  0
LINE
  8
1
 62
7
  6
CONTINUOUS
 10
62.739844
 20
139.548824
 11
62.739844
 21
164.048824
  0
LINE
  8
1
 62
7
  6
CONTINUOUS
 10
62.739844
 20
139.548824
 11
63.739844
 21
138.548824
  0
LINE
  8
1
 62
7
  6
CONTINUOUS
 10
62.739844
 20
164.048822
 11
106.739845
 21
164.048822
  0
LINE
  8
1
 62
7
  6
CONTINUOUS
 10
75.239845
 20
160.048822
 11
94.239846
 21
160.048822
  0
LINE
  8
1
 62
7
  6
CONTINUOUS
 10
75.739845
 20
149.248822
 11
75.739845
 21
159.548822
  0
LINE
  8
1
 62
7
  6
CONTINUOUS
 10
75.739845
 20
159.548822
 11
93.739844
 21
159.548822
  0
LINE
  8
1
 62
7
  6
CONTINUOUS
 10
93.739844
 20
159.548822
 11
93.739844
 21
149.248822
  0
LINE
  8
1
 62
7
  6
CONTINUOUS
 10
93.739844
 20
149.248822
 11
75.739845
 21
149.248822
  0
ARC
  8
1
 62
7
  6
CONTINUOUS
 10
76.739845
 20
147.548821
 40
1.500000
 50
180.000000
 51
-90.000000
  0
LINE
  8
1
 62
7
  6
CONTINUOUS
 10
75.239845
 20
147.548821
 11
75.239845
 21
160.048822
  0
ARC
  8
1
 62
7
  6
CONTINUOUS
 10
92.739846
 20
147.548821
 40
1.500000
 50
-90.000000
 51
0.000000
  0
LINE
  8
1
 62
7
  6
CONTINUOUS
 10
92.739846
 20
146.048822
 11
76.739845
 21
146.048822
  0
LINE
  8
1
 62
7
  6
CONTINUOUS
 10
94.239846
 20
160.048822
 11
94.239846
 21
147.548821
  0
ARC
  8
1
 62
7
  6
CONTINUOUS
 10
103.288380
 20
233.548823
 40
1.500000
 50
129.296438
 51
-129.296438
  0
ARC
  8
1
 62
7
  6
CONTINUOUS
 10
67.177838
 20
188.201174
 40
0.861052
 50
-49.254734
 51
33.521852
  0
LINE
  8
1
 62
7
  6
CONTINUOUS
 10
66.739844
 20
187.048824
 11
66.739844
 21
187.548824
  0
LINE
  8
1
 62
7
  6
CONTINUOUS
 10
102.739845
 20
187.048824
 11
102.739845
 21
187.548824
  0
ARC
  8
1
 62
7
  6
CONTINUOUS
 10
68.239844
 20
176.548824
 40
0.500000
 50
0.000000
 51
90.000000
  0
LINE
  8
1
 62
7
  6
CONTINUOUS
 10
68.739844
 20
165.048824
 11
68.739844
 21
176.548824
  0
ARC
  8
1
 62
7
  6
CONTINUOUS
 10
101.239845
 20
176.548824
 40
0.500000
 50
90.000000
 51
180.000000
  0
LINE
  8
1
 62
7
  6
CONTINUOUS
 10
100.739845
 20
165.048824
 11
100.739845
 21
176.548824
  0
LINE
  8
1
 62
7
  6
CONTINUOUS
 10
63.739844
 20
183.548824
 11
63.739844
 21
186.048824
  0
LINE
  8
1
 62
7
  6
CONTINUOUS
 10
63.739844
 20
178.548824
 11
64.739844
 21
179.548824
  0
LINE
  8
1
 62
7
  6
CONTINUOUS
 10
64.739844
 20
183.548824
 11
64.739844
 21
179.548824
  0
LINE
  8
1
 62
7
  6
CONTINUOUS
 10
63.739844
 20
177.048824
 11
63.739844
 21
178.548824
  0
ARC
  8
1
 62
7
  6
CONTINUOUS
 10
64.739844
 20
186.048824
 40
1.000000
 50
90.000000
 51
180.000000
  0
LINE
  8
1
 62
7
  6
CONTINUOUS
 10
105.739845
 20
183.548824
 11
105.739845
 21
186.048824
  0
LINE
  8
1
 62
7
  6
CONTINUOUS
 10
105.739845
 20
178.548824
 11
104.739845
 21
179.548824
  0
LINE
  8
1
 62
7
  6
CONTINUOUS
 10
104.739845
 20
183.548824
 11
104.739845
 21
179.548824
  0
LINE
  8
1
 62
7
  6
CONTINUOUS
 10
105.739845
 20
177.048824
 11
105.739845
 21
178.548824
  0
ARC
  8
1
 62
7
  6
CONTINUOUS
 10
104.739845
 20
186.048824
 40
1.000000
 50
0.000000
 51
90.000000
  0
LINE
  8
1
 62
7
  6
CONTINUOUS
 10
63.739844
 20
183.548824
 11
105.739845
 21
183.548824
  0
LINE
  8
1
 62
7
  6
CONTINUOUS
 10
63.739844
 20
177.048824
 11
105.739845
 21
177.048824
  0
LINE
  8
1
 62
7
  6
CONTINUOUS
 10
63.739844
 20
178.548824
 11
105.739845
 21
178.548824
  0
LINE
  8
1
 62
7
  6
CONTINUOUS
 10
64.739844
 20
179.548824
 11
104.739845
 21
179.548824
  0
TEXT
  8
2
 62
7
  6
CONTINUOUS
 10
78.774345
 20
146.348824
 40
1.000000
 41
0.900000
  1
MADE IN JAPAN
  7
KANJI
 50
0.000000
 51
0.000000
  0
ARC
  8
1
 62
7
  6
CONTINUOUS
 10
102.301851
 20
188.201174
 40
0.861052
 50
146.478148
 51
-130.745266
  0
ARC
  8
1
 62
7
  6
CONTINUOUS
 10
66.191310
 20
233.548823
 40
1.500000
 50
-50.703562
 51
50.703562
  0
ARC
  8
1
 62
7
  6
CONTINUOUS
 10
73.239845
 20
138.048822
 40
0.500000
 50
0.000000
 51
90.000000
  0
LINE
  8
1
 62
7
  6
CONTINUOUS
 10
73.739845
 20
138.048822
 11
73.739845
 21
128.048823
  0
LINE
  8
2
 62
7
  6
DASHDOT
 10
100.715168
 20
233.485232
 11
104.156760
 21
233.485232
  0
LINE
  8
2
 62
7
  6
DASHDOT
 10
68.764521
 20
233.485232
 11
65.322929
 21
233.485232
  0
LINE
  8
1
 62
7
  6
CONTINUOUS
 10
67.139844
 20
242.548824
 11
67.139844
 21
225.685233
  0
LINE
  8
1
 62
7
  6
CONTINUOUS
 10
102.339845
 20
243.556177
 11
102.339845
 21
225.685233
  0
ARC
  8
1
 62
7
  6
CONTINUOUS
 10
70.289480
 20
190.548824
 40
3.000000
 50
-163.269920
 51
-90.000000
  0
ARC
  8
1
 62
7
  6
CONTINUOUS
 10
99.190209
 20
190.548824
 40
3.000000
 50
-90.000000
 51
-16.730080
  0
LINE
  8
1
 62
7
  6
CONTINUOUS
 10
66.739844
 20
187.548824
 11
81.489845
 21
187.548824
  0
LINE
  8
1
 62
7
  6
CONTINUOUS
 10
87.989844
 20
187.548824
 11
102.739845
 21
187.548824
  0
LINE
  8
1
 62
7
  6
CONTINUOUS
 10
81.489845
 20
187.048824
 11
64.739844
 21
187.048824
  0
LINE
  8
1
 62
7
  6
CONTINUOUS
 10
104.739845
 20
187.048824
 11
87.989844
 21
187.048824
  0
LINE
  8
1
 62
7
  6
CONTINUOUS
 10
172.795807
 20
127.548823
 11
172.295807
 21
128.048823
  0
LINE
  8
1
 62
7
  6
CONTINUOUS
 10
194.295806
 20
128.048823
 11
193.795806
 21
127.548823
  0
ARC
  8
1
 62
7
  6
CONTINUOUS
 10
174.645805
 20
126.548823
 40
1.000000
 50
0.000000
 51
90.000000
  0
ARC
  8
1
 62
7
  6
CONTINUOUS
 10
191.945808
 20
126.548823
 40
1.000000
 50
90.000000
 51
180.000000
  0
LINE
  8
1
 62
7
  6
CONTINUOUS
 10
205.295806
 20
164.048822
 11
204.295807
 21
165.048822
  0
LINE
  8
1
 62
7
  6
CONTINUOUS
 10
161.295806
 20
164.048822
 11
162.295806
 21
165.048822
  0
LINE
  8
1
 62
7
  6
CONTINUOUS
 10
161.295806
 20
139.548822
 11
161.295806
 21
164.048822
  0
LINE
  8
1
 62
7
  6
CONTINUOUS
 10
205.295806
 20
139.548822
 11
204.295807
 21
138.548822
  0
ARC
  8
1
 62
7
  6
CONTINUOUS
 10
194.795806
 20
138.048822
 40
0.500000
 50
90.000000
 51
180.000000
  0
LINE
  8
1
 62
7
  6
CONTINUOUS
 10
194.295806
 20
138.048822
 11
194.295806
 21
128.048823
  0
ARC
  8
1
 62
7
  6
CONTINUOUS
 10
199.795807
 20
165.548822
 40
0.500000
 50
180.000000
 51
-90.000000
  0
LINE
  8
1
 62
7
  6
CONTINUOUS
 10
199.795807
 20
165.048822
 11
204.295807
 21
165.048822
  0
ARC
  8
1
 62
7
  6
CONTINUOUS
 10
166.795806
 20
165.548822
 40
0.500000
 50
-90.000000
 51
0.000000
  0
LINE
  8
1
 62
7
  6
CONTINUOUS
 10
166.795806
 20
165.048822
 11
162.295806
 21
165.048822
  0
LINE
  8
1
 62
7
  6
CONTINUOUS
 10
167.295806
 20
165.548822
 11
167.295806
 21
175.048720
  0
LINE
  8
1
 62
7
  6
CONTINUOUS
 10
166.795806
 20
165.048822
 11
183.295806
 21
165.048822
  0
LINE
  8
1
 62
7
  6
CONTINUOUS
 10
172.795807
 20
127.548823
 11
193.795806
 21
127.548823
  0
LINE
  8
1
 62
7
  6
CONTINUOUS
 10
199.295807
 20
165.548822
 11
199.295807
 21
175.048720
  0
ARC
  8
1
 62
7
  6
CONTINUOUS
 10
199.795807
 20
165.548822
 40
0.500000
 50
180.000000
 51
-90.000000
  0
LINE
  8
1
 62
7
  6
CONTINUOUS
 10
199.795807
 20
165.048822
 11
204.295807
 21
165.048822
  0
LINE
  8
1
 62
7
  6
CONTINUOUS
 10
199.795807
 20
165.048822
 11
183.295806
 21
165.048822
  0
LINE
  8
1
 62
7
  6
CONTINUOUS
 10
162.295806
 20
138.548824
 11
204.295807
 21
138.548824
  0
LINE
  8
1
 62
7
  6
CONTINUOUS
 10
161.295806
 20
139.548824
 11
205.295806
 21
139.548824
  0
LINE
  8
1
 62
7
  6
CONTINUOUS
 10
161.295806
 20
139.548824
 11
161.295806
 21
164.048824
  0
LINE
  8
1
 62
7
  6
CONTINUOUS
 10
161.295806
 20
164.048822
 11
205.295806
 21
164.048822
  0
LINE
  8
1
 62
7
  6
CONTINUOUS
 10
165.695806
 20
234.709642
 11
165.695806
 21
232.388003
  0
ARC
  8
1
 62
7
  6
CONTINUOUS
 10
201.844341
 20
233.548823
 40
1.500000
 50
129.296438
 51
-129.296438
  0
LINE
  8
1
 62
7
  6
CONTINUOUS
 10
165.295806
 20
187.048824
 11
165.295806
 21
187.548824
  0
LINE
  8
1
 62
7
  6
CONTINUOUS
 10
201.295807
 20
187.048824
 11
201.295807
 21
187.548824
  0
ARC
  8
1
 62
7
  6
CONTINUOUS
 10
166.795806
 20
176.548824
 40
0.500000
 50
0.000000
 51
90.000000
  0
ARC
  8
1
 62
7
  6
CONTINUOUS
 10
199.795807
 20
176.548824
 40
0.500000
 50
90.000000
 51
180.000000
  0
LINE
  8
1
 62
7
  6
CONTINUOUS
 10
162.295806
 20
183.548824
 11
162.295806
 21
186.048824
  0
LINE
  8
1
 62
7
  6
CONTINUOUS
 10
162.295806
 20
178.548824
 11
163.295806
 21
179.548824
  0
LINE
  8
1
 62
7
  6
CONTINUOUS
 10
163.295806
 20
183.548824
 11
163.295806
 21
179.548824
  0
LINE
  8
1
 62
7
  6
CONTINUOUS
 10
162.295806
 20
177.048824
 11
162.295806
 21
178.548824
  0
ARC
  8
1
 62
7
  6
CONTINUOUS
 10
163.295806
 20
186.048824
 40
1.000000
 50
90.000000
 51
180.000000
  0
LINE
  8
1
 62
7
  6
CONTINUOUS
 10
204.295807
 20
183.548824
 11
204.295807
 21
186.048824
  0
LINE
  8
1
 62
7
  6
CONTINUOUS
 10
204.295807
 20
178.548824
 11
203.295807
 21
179.548824
  0
LINE
  8
1
 62
7
  6
CONTINUOUS
 10
203.295807
 20
183.548824
 11
203.295807
 21
179.548824
  0
LINE
  8
1
 62
7
  6
CONTINUOUS
 10
204.295807
 20
177.048824
 11
204.295807
 21
178.548824
  0
ARC
  8
1
 62
7
  6
CONTINUOUS
 10
203.295807
 20
186.048824
 40
1.000000
 50
0.000000
 51
90.000000
  0
LINE
  8
1
 62
7
  6
CONTINUOUS
 10
165.295806
 20
187.548824
 11
201.295807
 21
187.548824
  0
LINE
  8
1
 62
7
  6
CONTINUOUS
 10
203.295807
 20
187.048824
 11
163.295806
 21
187.048824
  0
LINE
  8
1
 62
7
  6
CONTINUOUS
 10
162.295806
 20
183.548824
 11
204.295807
 21
183.548824
  0
LINE
  8
1
 62
7
  6
CONTINUOUS
 10
162.295806
 20
177.048824
 11
204.295807
 21
177.048824
  0
LINE
  8
1
 62
7
  6
CONTINUOUS
 10
162.295806
 20
178.548824
 11
204.295807
 21
178.548824
  0
LINE
  8
1
 62
7
  6
CONTINUOUS
 10
163.295806
 20
179.548824
 11
203.295807
 21
179.548824
  0
CIRCLE
  8
1
 62
7
  6
CONTINUOUS
 10
183.295806
 20
233.485232
 40
1.224409
  0
ARC
  8
1
 62
7
  6
CONTINUOUS
 10
164.747271
 20
233.548823
 40
1.500000
 50
-50.703562
 51
50.703562
  0
ARC
  8
1
 62
7
  6
CONTINUOUS
 10
171.795807
 20
138.048822
 40
0.500000
 50
0.000000
 51
90.000000
  0
LINE
  8
1
 62
7
  6
CONTINUOUS
 10
172.295807
 20
138.048822
 11
172.295807
 21
128.048823
  0
LINE
  8
2
 62
7
  6
DASHDOT
 10
199.271130
 20
233.485232
 11
202.712722
 21
233.485232
  0
LINE
  8
2
 62
7
  6
DASHDOT
 10
167.320482
 20
233.485232
 11
163.878890
 21
233.485232
  0
LINE
  8
1
 62
7
  6
CONTINUOUS
 10
165.695806
 20
242.548824
 11
165.695806
 21
225.685233
  0
LINE
  8
1
 62
7
  6
CONTINUOUS
 10
200.895806
 20
242.548824
 11
200.895806
 21
225.685233
  0
ARC
  8
1
 62
7
  6
CONTINUOUS
 10
168.845442
 20
190.548824
 40
3.000000
 50
-163.269920
 51
-90.000000
  0
ARC
  8
1
 62
7
  6
CONTINUOUS
 10
197.746171
 20
190.548824
 40
3.000000
 50
-90.000000
 51
-16.730080
  0
LINE
  8
1
 62
7
  6
CONTINUOUS
 10
161.295806
 20
139.548824
 11
162.295806
 21
138.548824
  0
LINE
  8
1
 62
7
  6
CONTINUOUS
 10
170.295804
 20
159.548822
 11
170.295804
 21
149.248822
  0
ARC
  8
1
 62
7
  6
CONTINUOUS
 10
169.295805
 20
147.548821
 40
1.500000
 50
-90.000000
 51
0.000000
  0
LINE
  8
1
 62
7
  6
CONTINUOUS
 10
170.795805
 20
160.048822
 11
170.795805
 21
147.548821
  0
LINE
  8
2
 62
7
  6
CONTINUOUS
 10
161.563951
 20
148.494715
 11
161.397029
 21
148.327795
  0
LINE
  8
2
 62
7
  6
CONTINUOUS
 10
162.208456
 20
147.720382
 11
162.208456
 21
148.327795
  0
LINE
  8
2
 62
7
  6
CONTINUOUS
 10
162.208456
 20
148.327795
 11
162.036899
 21
148.494715
  0
LINE
  8
2
 62
7
  6
CONTINUOUS
 10
162.036899
 20
148.494715
 11
161.563951
 21
148.494715
  0
LINE
  8
2
 62
7
  6
CONTINUOUS
 10
161.665958
 20
148.225786
 11
161.665958
 21
147.817753
  0
LINE
  8
2
 62
7
  6
CONTINUOUS
 10
161.665958
 20
147.817753
 11
161.934890
 21
147.817753
  0
LINE
  8
2
 62
7
  6
CONTINUOUS
 10
161.934890
 20
147.817753
 11
161.934890
 21
148.225786
  0
LINE
  8
2
 62
7
  6
CONTINUOUS
 10
161.934890
 20
148.225786
 11
161.665958
 21
148.225786
  0
LINE
  8
2
 62
7
  6
CONTINUOUS
 10
162.342921
 20
148.870292
 11
162.342921
 21
147.548823
  0
LINE
  8
2
 62
7
  6
CONTINUOUS
 10
162.611853
 20
147.548823
 11
162.611853
 21
148.768283
  0
LINE
  8
2
 62
7
  6
CONTINUOUS
 10
162.611853
 20
148.768283
 11
162.741681
 21
148.768283
  0
LINE
  8
2
 62
7
  6
CONTINUOUS
 10
162.741681
 20
148.768283
 11
162.941061
 21
147.687926
  0
LINE
  8
2
 62
7
  6
CONTINUOUS
 10
163.502106
 20
147.687926
 11
163.706122
 21
148.768283
  0
LINE
  8
2
 62
7
  6
CONTINUOUS
 10
163.706122
 20
148.768283
 11
163.831313
 21
148.768283
  0
LINE
  8
2
 62
7
  6
CONTINUOUS
 10
163.831313
 20
148.768283
 11
163.831313
 21
147.548823
  0
LINE
  8
2
 62
7
  6
CONTINUOUS
 10
164.104881
 20
147.548823
 11
164.104881
 21
148.870292
  0
LINE
  8
2
 62
7
  6
CONTINUOUS
 10
163.376914
 20
148.870292
 11
163.223902
 21
147.956855
  0
LINE
  8
2
 62
7
  6
CONTINUOUS
 10
163.223902
 20
147.956855
 11
163.056979
 21
148.870292
  0
LINE
  8
2
 62
7
  6
CONTINUOUS
 10
164.239346
 20
149.037213
 11
164.239346
 21
147.548823
  0
LINE
  8
2
 62
7
  6
CONTINUOUS
 10
164.508277
 20
147.548823
 11
164.508277
 21
149.037213
  0
LINE
  8
2
 62
7
  6
CONTINUOUS
 10
164.642743
 20
149.037213
 11
165.287249
 21
148.225786
  0
LINE
  8
2
 62
7
  6
CONTINUOUS
 10
165.287249
 20
148.225786
 11
165.069322
 21
147.817753
  0
LINE
  8
2
 62
7
  6
CONTINUOUS
 10
165.069322
 20
147.817753
 11
164.642743
 21
147.817753
  0
LINE
  8
2
 62
7
  6
CONTINUOUS
 10
164.642743
 20
147.817753
 11
164.642743
 21
147.548823
  0
LINE
  8
2
 62
7
  6
CONTINUOUS
 10
165.333616
 20
147.632283
 11
166.135770
 21
149.037213
  0
LINE
  8
2
 62
7
  6
CONTINUOUS
 10
165.760195
 20
149.037213
 11
165.458808
 21
148.531809
  0
LINE
  8
2
 62
7
  6
CONTINUOUS
 10
165.458808
 20
148.531809
 11
165.050775
 21
149.037213
  0
LINE
  8
2
 62
7
  6
CONTINUOUS
 10
166.413975
 20
148.953753
 11
165.607184
 21
147.548823
  0
LINE
  8
2
 62
7
  6
CONTINUOUS
 10
165.978122
 20
147.548823
 11
166.608718
 21
148.633818
  0
LINE
  8
2
 62
7
  6
CONTINUOUS
 10
166.608718
 20
148.633818
 11
166.641174
 21
148.633818
  0
LINE
  8
2
 62
7
  6
CONTINUOUS
 10
166.641174
 20
148.633818
 11
166.641174
 21
147.854847
  0
LINE
  8
2
 62
7
  6
CONTINUOUS
 10
166.641174
 20
147.854847
 11
166.404702
 21
147.854847
  0
LINE
  8
2
 62
7
  6
CONTINUOUS
 10
166.404702
 20
147.854847
 11
166.404702
 21
147.548823
  0
LINE
  8
2
 62
7
  6
CONTINUOUS
 10
166.947200
 20
147.720382
 11
166.947200
 21
148.870292
  0
LINE
  8
2
 62
7
  6
CONTINUOUS
 10
162.514482
 20
149.037213
 11
162.342921
 21
148.870292
  0
LINE
  8
2
 62
7
  6
CONTINUOUS
 10
164.104881
 20
148.870292
 11
163.933322
 21
149.037213
  0
LINE
  8
2
 62
7
  6
CONTINUOUS
 10
163.933322
 20
149.037213
 11
163.553111
 21
149.037213
  0
LINE
  8
2
 62
7
  6
CONTINUOUS
 10
163.553111
 20
149.037213
 11
163.376914
 21
148.870292
  0
LINE
  8
2
 62
7
  6
CONTINUOUS
 10
163.056979
 20
148.870292
 11
162.941061
 21
149.037213
  0
LINE
  8
2
 62
7
  6
CONTINUOUS
 10
162.941061
 20
149.037213
 11
162.514482
 21
149.037213
  0
LINE
  8
2
 62
7
  6
CONTINUOUS
 10
164.508277
 20
149.037213
 11
164.239346
 21
149.037213
  0
LINE
  8
2
 62
7
  6
CONTINUOUS
 10
166.135770
 20
149.037213
 11
165.760195
 21
149.037213
  0
LINE
  8
2
 62
7
  6
CONTINUOUS
 10
165.050775
 20
149.037213
 11
164.642743
 21
149.037213
  0
LINE
  8
2
 62
7
  6
CONTINUOUS
 10
166.557714
 20
149.037213
 11
166.413975
 21
148.953753
  0
LINE
  8
2
 62
7
  6
CONTINUOUS
 10
166.947200
 20
148.870292
 11
166.775641
 21
149.037213
  0
LINE
  8
2
 62
7
  6
CONTINUOUS
 10
166.775641
 20
149.037213
 11
166.557714
 21
149.037213
  0
LINE
  8
2
 62
7
  6
CONTINUOUS
 10
161.397029
 20
147.720382
 11
161.563951
 21
147.548823
  0
LINE
  8
2
 62
7
  6
CONTINUOUS
 10
161.563951
 20
147.548823
 11
162.036899
 21
147.548823
  0
LINE
  8
2
 62
7
  6
CONTINUOUS
 10
162.036899
 20
147.548823
 11
162.208456
 21
147.720382
  0
LINE
  8
2
 62
7
  6
CONTINUOUS
 10
162.342921
 20
147.548823
 11
162.611853
 21
147.548823
  0
LINE
  8
2
 62
7
  6
CONTINUOUS
 10
162.941061
 20
147.687926
 11
163.107982
 21
147.548823
  0
LINE
  8
2
 62
7
  6
CONTINUOUS
 10
163.107982
 20
147.548823
 11
163.335184
 21
147.548823
  0
LINE
  8
2
 62
7
  6
CONTINUOUS
 10
163.335184
 20
147.548823
 11
163.502106
 21
147.687926
  0
LINE
  8
2
 62
7
  6
CONTINUOUS
 10
163.831313
 20
147.548823
 11
164.104881
 21
147.548823
  0
LINE
  8
2
 62
7
  6
CONTINUOUS
 10
164.239346
 20
147.548823
 11
164.508277
 21
147.548823
  0
LINE
  8
2
 62
7
  6
CONTINUOUS
 10
164.642743
 20
147.548823
 11
165.185240
 21
147.548823
  0
LINE
  8
2
 62
7
  6
CONTINUOUS
 10
165.185240
 20
147.548823
 11
165.333616
 21
147.632283
  0
LINE
  8
2
 62
7
  6
CONTINUOUS
 10
165.607184
 20
147.548823
 11
165.978122
 21
147.548823
  0
LINE
  8
2
 62
7
  6
CONTINUOUS
 10
166.404702
 20
147.548823
 11
166.775641
 21
147.548823
  0
LINE
  8
2
 62
7
  6
CONTINUOUS
 10
166.775641
 20
147.548823
 11
166.947200
 21
147.720382
  0
LINE
  8
1
 62
7
  6
CONTINUOUS
 10
161.295806
 20
160.048822
 11
170.795805
 21
160.048822
  0
LINE
  8
1
 62
7
  6
CONTINUOUS
 10
161.295806
 20
159.548822
 11
170.295804
 21
159.548822
  0
LINE
  8
1
 62
7
  6
CONTINUOUS
 10
170.295804
 20
149.248822
 11
161.295806
 21
149.248822
  0
LINE
  8
1
 62
7
  6
CONTINUOUS
 10
169.295805
 20
146.048822
 11
161.295806
 21
146.048822
  0
TEXT
  8
2
 62
7
  6
CONTINUOUS
 10
161.830407
 20
146.258627
 40
2.000000
 41
0.900000
  1
JAPAN
  7
KANJI
 50
0.000000
 51
0.000000
  0
LINE
  8
1
 62
7
  6
CONTINUOUS
 10
84.739845
 20
62.250593
 11
92.389846
 21
62.250593
  0
LINE
  8
1
 62
7
  6
CONTINUOUS
 10
84.739845
 20
62.250594
 11
92.389846
 21
62.250594
  0
LINE
  8
1
 62
7
  6
CONTINUOUS
 10
84.739845
 20
62.250593
 11
77.089843
 21
62.250593
  0
LINE
  8
1
 62
7
  6
CONTINUOUS
 10
84.739845
 20
62.250594
 11
77.089843
 21
62.250594
  0
LINE
  8
1
 62
7
  6
CONTINUOUS
 10
183.295806
 20
62.250593
 11
190.945808
 21
62.250593
  0
LINE
  8
1
 62
7
  6
CONTINUOUS
 10
183.295806
 20
62.250594
 11
190.945808
 21
62.250594
  0
LINE
  8
1
 62
7
  6
CONTINUOUS
 10
183.295806
 20
62.250593
 11
175.645805
 21
62.250593
  0
LINE
  8
1
 62
7
  6
CONTINUOUS
 10
183.295806
 20
62.250594
 11
175.645805
 21
62.250594
  0
LINE
  8
1
 62
7
  6
CONTINUOUS
 10
176.845806
 20
78.431490
 11
176.845806
 21
62.250593
  0
LINE
  8
1
 62
7
  6
CONTINUOUS
 10
189.745807
 20
76.870789
 11
189.745807
 21
62.250593
  0
LINE
  8
2
 62
7
  6
CONTINUOUS
 10
175.645805
 20
77.235119
 11
175.650306
 21
77.243067
  0
LINE
  8
2
 62
7
  6
CONTINUOUS
 10
175.650306
 20
77.243067
 11
175.663696
 21
77.266695
  0
LINE
  8
2
 62
7
  6
CONTINUOUS
 10
175.663696
 20
77.266695
 11
175.685697
 21
77.305363
  0
LINE
  8
2
 62
7
  6
CONTINUOUS
 10
175.685697
 20
77.305363
 11
175.716021
 21
77.358034
  0
LINE
  8
2
 62
7
  6
CONTINUOUS
 10
175.716021
 20
77.358034
 11
175.754571
 21
77.423313
  0
LINE
  8
2
 62
7
  6
CONTINUOUS
 10
175.754571
 20
77.423313
 11
175.801589
 21
77.499494
  0
LINE
  8
2
 62
7
  6
CONTINUOUS
 10
175.801589
 20
77.499494
 11
175.857703
 21
77.584607
  0
LINE
  8
2
 62
7
  6
CONTINUOUS
 10
175.857703
 20
77.584607
 11
175.923789
 21
77.676469
  0
LINE
  8
2
 62
7
  6
CONTINUOUS
 10
175.923789
 20
77.676469
 11
176.000675
 21
77.772725
  0
LINE
  8
2
 62
7
  6
CONTINUOUS
 10
176.000675
 20
77.772725
 11
176.088698
 21
77.870887
  0
LINE
  8
2
 62
7
  6
CONTINUOUS
 10
176.088698
 20
77.870887
 11
176.187229
 21
77.968380
  0
LINE
  8
2
 62
7
  6
CONTINUOUS
 10
176.187229
 20
77.968380
 11
176.294259
 21
78.062584
  0
LINE
  8
2
 62
7
  6
CONTINUOUS
 10
176.294259
 20
78.062584
 11
176.406178
 21
78.150888
  0
LINE
  8
2
 62
7
  6
CONTINUOUS
 10
176.406178
 20
78.150888
 11
176.517818
 21
78.230763
  0
LINE
  8
2
 62
7
  6
CONTINUOUS
 10
176.517818
 20
78.230763
 11
176.622800
 21
78.299840
  0
LINE
  8
2
 62
7
  6
CONTINUOUS
 10
176.622800
 20
78.299840
 11
176.714171
 21
78.356002
  0
LINE
  8
2
 62
7
  6
CONTINUOUS
 10
176.714171
 20
78.356002
 11
176.785216
 21
78.397473
  0
LINE
  8
2
 62
7
  6
CONTINUOUS
 10
176.785216
 20
78.397473
 11
176.830333
 21
78.422915
  0
LINE
  8
2
 62
7
  6
CONTINUOUS
 10
176.830333
 20
78.422915
 11
176.845806
 21
78.431490
  0
LINE
  8
2
 62
7
  6
CONTINUOUS
 10
176.845806
 20
78.431490
 11
176.861429
 21
78.440074
  0
LINE
  8
2
 62
7
  6
CONTINUOUS
 10
176.861429
 20
78.440074
 11
176.908750
 21
78.465633
  0
LINE
  8
2
 62
7
  6
CONTINUOUS
 10
176.908750
 20
78.465633
 11
176.988941
 21
78.507548
  0
LINE
  8
2
 62
7
  6
CONTINUOUS
 10
176.988941
 20
78.507548
 11
177.103401
 21
78.564649
  0
LINE
  8
2
 62
7
  6
CONTINUOUS
 10
177.103401
 20
78.564649
 11
177.253048
 21
78.635068
  0
LINE
  8
2
 62
7
  6
CONTINUOUS
 10
177.253048
 20
78.635068
 11
177.437567
 21
78.716142
  0
LINE
  8
2
 62
7
  6
CONTINUOUS
 10
177.437567
 20
78.716142
 11
177.654778
 21
78.804408
  0
LINE
  8
2
 62
7
  6
CONTINUOUS
 10
177.654778
 20
78.804408
 11
177.900272
 21
78.895762
  0
LINE
  8
2
 62
7
  6
CONTINUOUS
 10
177.900272
 20
78.895762
 11
178.167386
 21
78.985766
  0
LINE
  8
2
 62
7
  6
CONTINUOUS
 10
178.167386
 20
78.985766
 11
178.447544
 21
79.070089
  0
LINE
  8
2
 62
7
  6
CONTINUOUS
 10
178.447544
 20
79.070089
 11
178.730892
 21
79.144992
  0
LINE
  8
2
 62
7
  6
CONTINUOUS
 10
178.730892
 20
79.144992
 11
179.007093
 21
79.207780
  0
LINE
  8
2
 62
7
  6
CONTINUOUS
 10
179.007093
 20
79.207780
 11
179.266160
 21
79.257111
  0
LINE
  8
2
 62
7
  6
CONTINUOUS
 10
179.266160
 20
79.257111
 11
179.499144
 21
79.293099
  0
LINE
  8
2
 62
7
  6
CONTINUOUS
 10
179.499144
 20
79.293099
 11
179.698616
 21
79.317169
  0
LINE
  8
2
 62
7
  6
CONTINUOUS
 10
179.698616
 20
79.317169
 11
179.858861
 21
79.331678
  0
LINE
  8
2
 62
7
  6
CONTINUOUS
 10
179.858861
 20
79.331678
 11
179.975836
 21
79.339375
  0
LINE
  8
2
 62
7
  6
CONTINUOUS
 10
179.975836
 20
79.339375
 11
180.046952
 21
79.342799
  0
LINE
  8
2
 62
7
  6
CONTINUOUS
 10
180.046952
 20
79.342799
 11
180.070804
 21
79.343728
  0
LINE
  8
2
 62
7
  6
CONTINUOUS
 10
180.070804
 20
79.343728
 11
180.094619
 21
79.344543
  0
LINE
  8
2
 62
7
  6
CONTINUOUS
 10
180.094619
 20
79.344543
 11
180.165194
 21
79.346301
  0
LINE
  8
2
 62
7
  6
CONTINUOUS
 10
180.165194
 20
79.346301
 11
180.279982
 21
79.347065
  0
LINE
  8
2
 62
7
  6
CONTINUOUS
 10
180.279982
 20
79.347065
 11
180.434937
 21
79.344005
  0
LINE
  8
2
 62
7
  6
CONTINUOUS
 10
180.434937
 20
79.344005
 11
180.624777
 21
79.333916
  0
LINE
  8
2
 62
7
  6
CONTINUOUS
 10
180.624777
 20
79.333916
 11
180.843299
 21
79.313804
  0
LINE
  8
2
 62
7
  6
CONTINUOUS
 10
180.843299
 20
79.313804
 11
181.083712
 21
79.281437
  0
LINE
  8
2
 62
7
  6
CONTINUOUS
 10
181.083712
 20
79.281437
 11
181.338926
 21
79.235764
  0
LINE
  8
2
 62
7
  6
CONTINUOUS
 10
181.338926
 20
79.235764
 11
181.601810
 21
79.177143
  0
LINE
  8
2
 62
7
  6
CONTINUOUS
 10
181.601810
 20
79.177143
 11
181.865360
 21
79.107347
  0
LINE
  8
2
 62
7
  6
CONTINUOUS
 10
181.865360
 20
79.107347
 11
182.122832
 21
79.029369
  0
LINE
  8
2
 62
7
  6
CONTINUOUS
 10
182.122832
 20
79.029369
 11
182.367811
 21
78.947080
  0
LINE
  8
2
 62
7
  6
CONTINUOUS
 10
182.367811
 20
78.947080
 11
182.594272
 21
78.864806
  0
LINE
  8
2
 62
7
  6
CONTINUOUS
 10
182.594272
 20
78.864806
 11
182.796639
 21
78.786903
  0
LINE
  8
2
 62
7
  6
CONTINUOUS
 10
182.796639
 20
78.786903
 11
182.969870
 21
78.717402
  0
LINE
  8
2
 62
7
  6
CONTINUOUS
 10
182.969870
 20
78.717402
 11
183.109564
 21
78.659749
  0
LINE
  8
2
 62
7
  6
CONTINUOUS
 10
183.109564
 20
78.659749
 11
183.212091
 21
78.616652
  0
LINE
  8
2
 62
7
  6
CONTINUOUS
 10
183.212091
 20
78.616652
 11
183.274734
 21
78.590037
  0
LINE
  8
2
 62
7
  6
CONTINUOUS
 10
183.274734
 20
78.590037
 11
183.295806
 21
78.581040
  0
LINE
  8
2
 62
7
  6
CONTINUOUS
 10
183.295806
 20
78.581040
 11
183.316878
 21
78.572021
  0
LINE
  8
2
 62
7
  6
CONTINUOUS
 10
183.316878
 20
78.572021
 11
183.379521
 21
78.545093
  0
LINE
  8
2
 62
7
  6
CONTINUOUS
 10
183.379521
 20
78.545093
 11
183.482049
 21
78.500671
  0
LINE
  8
2
 62
7
  6
CONTINUOUS
 10
183.482049
 20
78.500671
 11
183.621742
 21
78.439553
  0
LINE
  8
2
 62
7
  6
CONTINUOUS
 10
183.621742
 20
78.439553
 11
183.794973
 21
78.363049
  0
LINE
  8
2
 62
7
  6
CONTINUOUS
 10
183.794973
 20
78.363049
 11
183.997340
 21
78.273084
  0
LINE
  8
2
 62
7
  6
CONTINUOUS
 10
183.997340
 20
78.273084
 11
184.223801
 21
78.172249
  0
LINE
  8
2
 62
7
  6
CONTINUOUS
 10
184.223801
 20
78.172249
 11
184.468779
 21
78.063761
  0
LINE
  8
2
 62
7
  6
CONTINUOUS
 10
184.468779
 20
78.063761
 11
184.726251
 21
77.951312
  0
LINE
  8
2
 62
7
  6
CONTINUOUS
 10
184.726251
 20
77.951312
 11
184.989801
 21
77.838833
  0
LINE
  8
2
 62
7
  6
CONTINUOUS
 10
184.989801
 20
77.838833
 11
185.252683
 21
77.730198
  0
LINE
  8
2
 62
7
  6
CONTINUOUS
 10
185.252683
 20
77.730198
 11
185.507898
 21
77.628924
  0
LINE
  8
2
 62
7
  6
CONTINUOUS
 10
185.507898
 20
77.628924
 11
185.748310
 21
77.537923
  0
LINE
  8
2
 62
7
  6
CONTINUOUS
 10
185.748310
 20
77.537923
 11
185.966832
 21
77.459344
  0
LINE
  8
2
 62
7
  6
CONTINUOUS
 10
185.966832
 20
77.459344
 11
186.156671
 21
77.394546
  0
LINE
  8
2
 62
7
  6
CONTINUOUS
 10
186.156671
 20
77.394546
 11
186.311626
 21
77.344186
  0
LINE
  8
2
 62
7
  6
CONTINUOUS
 10
186.311626
 20
77.344186
 11
186.426415
 21
77.308405
  0
LINE
  8
2
 62
7
  6
CONTINUOUS
 10
186.426415
 20
77.308405
 11
186.496990
 21
77.287067
  0
LINE
  8
2
 62
7
  6
CONTINUOUS
 10
186.496990
 20
77.287067
 11
186.520805
 21
77.279983
  0
LINE
  8
2
 62
7
  6
CONTINUOUS
 10
186.520805
 20
77.279983
 11
186.544657
 21
77.272945
  0
LINE
  8
2
 62
7
  6
CONTINUOUS
 10
186.544657
 20
77.272945
 11
186.615773
 21
77.252308
  0
LINE
  8
2
 62
7
  6
CONTINUOUS
 10
186.615773
 20
77.252308
 11
186.732747
 21
77.219465
  0
LINE
  8
2
 62
7
  6
CONTINUOUS
 10
186.732747
 20
77.219465
 11
186.892992
 21
77.176633
  0
LINE
  8
2
 62
7
  6
CONTINUOUS
 10
186.892992
 20
77.176633
 11
187.092464
 21
77.126699
  0
LINE
  8
2
 62
7
  6
CONTINUOUS
 10
187.092464
 20
77.126699
 11
187.325449
 21
77.073000
  0
LINE
  8
2
 62
7
  6
CONTINUOUS
 10
187.325449
 20
77.073000
 11
187.584516
 21
77.019062
  0
LINE
  8
2
 62
7
  6
CONTINUOUS
 10
187.584516
 20
77.019062
 11
187.860718
 21
76.968297
  0
LINE
  8
2
 62
7
  6
CONTINUOUS
 10
187.860718
 20
76.968297
 11
188.144065
 21
76.923696
  0
LINE
  8
2
 62
7
  6
CONTINUOUS
 10
188.144065
 20
76.923696
 11
188.424224
 21
76.887549
  0
LINE
  8
2
 62
7
  6
CONTINUOUS
 10
188.424224
 20
76.887549
 11
188.691338
 21
76.861218
  0
LINE
  8
2
 62
7
  6
CONTINUOUS
 10
188.691338
 20
76.861218
 11
188.936832
 21
76.845013
  0
LINE
  8
2
 62
7
  6
CONTINUOUS
 10
188.936832
 20
76.845013
 11
189.154045
 21
76.838181
  0
LINE
  8
2
 62
7
  6
CONTINUOUS
 10
189.154045
 20
76.838181
 11
189.338564
 21
76.839028
  0
LINE
  8
2
 62
7
  6
CONTINUOUS
 10
189.338564
 20
76.839028
 11
189.488211
 21
76.845170
  0
LINE
  8
2
 62
7
  6
CONTINUOUS
 10
189.488211
 20
76.845170
 11
189.602671
 21
76.853867
  0
LINE
  8
2
 62
7
  6
CONTINUOUS
 10
189.602671
 20
76.853867
 11
189.682863
 21
76.862421
  0
LINE
  8
2
 62
7
  6
CONTINUOUS
 10
189.682863
 20
76.862421
 11
189.730184
 21
76.868565
  0
LINE
  8
2
 62
7
  6
CONTINUOUS
 10
189.730184
 20
76.868565
 11
189.745807
 21
76.870789
  0
LINE
  8
2
 62
7
  6
CONTINUOUS
 10
189.745807
 20
76.870789
 11
189.761280
 21
76.873093
  0
LINE
  8
2
 62
7
  6
CONTINUOUS
 10
189.761280
 20
76.873093
 11
189.806397
 21
76.880405
  0
LINE
  8
2
 62
7
  6
CONTINUOUS
 10
189.806397
 20
76.880405
 11
189.877442
 21
76.893842
  0
LINE
  8
2
 62
7
  6
CONTINUOUS
 10
189.877442
 20
76.893842
 11
189.968813
 21
76.914971
  0
LINE
  8
2
 62
7
  6
CONTINUOUS
 10
189.968813
 20
76.914971
 11
190.073795
 21
76.945447
  0
LINE
  8
2
 62
7
  6
CONTINUOUS
 10
190.073795
 20
76.945447
 11
190.185435
 21
76.986602
  0
LINE
  8
2
 62
7
  6
CONTINUOUS
 10
190.185435
 20
76.986602
 11
190.297354
 21
77.039074
  0
LINE
  8
2
 62
7
  6
CONTINUOUS
 10
190.297354
 20
77.039074
 11
190.404384
 21
77.102548
  0
LINE
  8
2
 62
7
  6
CONTINUOUS
 10
190.404384
 20
77.102548
 11
190.502915
 21
77.175660
  0
LINE
  8
2
 62
7
  6
CONTINUOUS
 10
190.502915
 20
77.175660
 11
190.590938
 21
77.256055
  0
LINE
  8
2
 62
7
  6
CONTINUOUS
 10
190.590938
 20
77.256055
 11
190.667824
 21
77.340605
  0
LINE
  8
2
 62
7
  6
CONTINUOUS
 10
190.667824
 20
77.340605
 11
190.733910
 21
77.425716
  0
LINE
  8
2
 62
7
  6
CONTINUOUS
 10
190.733910
 20
77.425716
 11
190.790024
 21
77.507678
  0
LINE
  8
2
 62
7
  6
CONTINUOUS
 10
190.790024
 20
77.507678
 11
190.837042
 21
77.582982
  0
LINE
  8
2
 62
7
  6
CONTINUOUS
 10
190.837042
 20
77.582982
 11
190.875591
 21
77.648565
  0
LINE
  8
2
 62
7
  6
CONTINUOUS
 10
190.875591
 20
77.648565
 11
190.905916
 21
77.701954
  0
LINE
  8
2
 62
7
  6
CONTINUOUS
 10
190.905916
 20
77.701954
 11
190.927917
 21
77.741307
  0
LINE
  8
2
 62
7
  6
CONTINUOUS
 10
190.927917
 20
77.741307
 11
190.941307
 21
77.765386
  0
LINE
  8
2
 62
7
  6
CONTINUOUS
 10
190.941307
 20
77.765386
 11
190.945808
 21
77.773487
  0
LINE
  8
1
 62
7
  6
CONTINUOUS
 10
175.645805
 20
77.235119
 11
175.645805
 21
62.250593
  0
LINE
  8
1
 62
7
  6
CONTINUOUS
 10
190.945808
 20
77.773487
 11
190.945808
 21
62.250593
  0
LINE
  8
2
 62
7
  6
CONTINUOUS
 10
77.089843
 20
77.235118
 11
77.094344
 21
77.243066
  0
LINE
  8
2
 62
7
  6
CONTINUOUS
 10
77.094344
 20
77.243066
 11
77.107734
 21
77.266693
  0
LINE
  8
2
 62
7
  6
CONTINUOUS
 10
77.107734
 20
77.266693
 11
77.129735
 21
77.305361
  0
LINE
  8
2
 62
7
  6
CONTINUOUS
 10
77.129735
 20
77.305361
 11
77.160060
 21
77.358032
  0
LINE
  8
2
 62
7
  6
CONTINUOUS
 10
77.160060
 20
77.358032
 11
77.198609
 21
77.423311
  0
LINE
  8
2
 62
7
  6
CONTINUOUS
 10
77.198609
 20
77.423311
 11
77.245628
 21
77.499492
  0
LINE
  8
2
 62
7
  6
CONTINUOUS
 10
77.245628
 20
77.499492
 11
77.301741
 21
77.584605
  0
LINE
  8
2
 62
7
  6
CONTINUOUS
 10
77.301741
 20
77.584605
 11
77.367828
 21
77.676468
  0
LINE
  8
2
 62
7
  6
CONTINUOUS
 10
77.367828
 20
77.676468
 11
77.444713
 21
77.772723
  0
LINE
  8
2
 62
7
  6
CONTINUOUS
 10
77.444713
 20
77.772723
 11
77.532737
 21
77.870886
  0
LINE
  8
2
 62
7
  6
CONTINUOUS
 10
77.532737
 20
77.870886
 11
77.631267
 21
77.968379
  0
LINE
  8
2
 62
7
  6
CONTINUOUS
 10
77.631267
 20
77.968379
 11
77.738297
 21
78.062582
  0
LINE
  8
2
 62
7
  6
CONTINUOUS
 10
77.738297
 20
78.062582
 11
77.850217
 21
78.150886
  0
LINE
  8
2
 62
7
  6
CONTINUOUS
 10
77.850217
 20
78.150886
 11
77.961856
 21
78.230761
  0
LINE
  8
2
 62
7
  6
CONTINUOUS
 10
77.961856
 20
78.230761
 11
78.066839
 21
78.299839
  0
LINE
  8
2
 62
7
  6
CONTINUOUS
 10
78.066839
 20
78.299839
 11
78.158209
 21
78.356000
  0
LINE
  8
2
 62
7
  6
CONTINUOUS
 10
78.158209
 20
78.356000
 11
78.229254
 21
78.397472
  0
LINE
  8
2
 62
7
  6
CONTINUOUS
 10
78.229254
 20
78.397472
 11
78.274371
 21
78.422913
  0
LINE
  8
2
 62
7
  6
CONTINUOUS
 10
78.274371
 20
78.422913
 11
78.289844
 21
78.431488
  0
LINE
  8
2
 62
7
  6
CONTINUOUS
 10
78.289844
 20
78.431488
 11
78.305467
 21
78.440072
  0
LINE
  8
2
 62
7
  6
CONTINUOUS
 10
78.305467
 20
78.440072
 11
78.352788
 21
78.465632
  0
LINE
  8
2
 62
7
  6
CONTINUOUS
 10
78.352788
 20
78.465632
 11
78.432979
 21
78.507547
  0
LINE
  8
2
 62
7
  6
CONTINUOUS
 10
78.432979
 20
78.507547
 11
78.547440
 21
78.564647
  0
LINE
  8
2
 62
7
  6
CONTINUOUS
 10
78.547440
 20
78.564647
 11
78.697087
 21
78.635067
  0
LINE
  8
2
 62
7
  6
CONTINUOUS
 10
78.697087
 20
78.635067
 11
78.881605
 21
78.716140
  0
LINE
  8
2
 62
7
  6
CONTINUOUS
 10
78.881605
 20
78.716140
 11
79.098817
 21
78.804406
  0
LINE
  8
2
 62
7
  6
CONTINUOUS
 10
79.098817
 20
78.804406
 11
79.344311
 21
78.895760
  0
LINE
  8
2
 62
7
  6
CONTINUOUS
 10
79.344311
 20
78.895760
 11
79.611424
 21
78.985765
  0
LINE
  8
2
 62
7
  6
CONTINUOUS
 10
79.611424
 20
78.985765
 11
79.891583
 21
79.070088
  0
LINE
  8
2
 62
7
  6
CONTINUOUS
 10
79.891583
 20
79.070088
 11
80.174930
 21
79.144991
  0
LINE
  8
2
 62
7
  6
CONTINUOUS
 10
80.174930
 20
79.144991
 11
80.451132
 21
79.207778
  0
LINE
  8
2
 62
7
  6
CONTINUOUS
 10
80.451132
 20
79.207778
 11
80.710198
 21
79.257109
  0
LINE
  8
2
 62
7
  6
CONTINUOUS
 10
80.710198
 20
79.257109
 11
80.943183
 21
79.293098
  0
LINE
  8
2
 62
7
  6
CONTINUOUS
 10
80.943183
 20
79.293098
 11
81.142655
 21
79.317167
  0
LINE
  8
2
 62
7
  6
CONTINUOUS
 10
81.142655
 20
79.317167
 11
81.302900
 21
79.331676
  0
LINE
  8
2
 62
7
  6
CONTINUOUS
 10
81.302900
 20
79.331676
 11
81.419874
 21
79.339374
  0
LINE
  8
2
 62
7
  6
CONTINUOUS
 10
81.419874
 20
79.339374
 11
81.490990
 21
79.342798
  0
LINE
  8
2
 62
7
  6
CONTINUOUS
 10
81.490990
 20
79.342798
 11
81.514842
 21
79.343727
  0
LINE
  8
2
 62
7
  6
CONTINUOUS
 10
81.514842
 20
79.343727
 11
81.538657
 21
79.344542
  0
LINE
  8
2
 62
7
  6
CONTINUOUS
 10
81.538657
 20
79.344542
 11
81.609232
 21
79.346300
  0
LINE
  8
2
 62
7
  6
CONTINUOUS
 10
81.609232
 20
79.346300
 11
81.724021
 21
79.347064
  0
LINE
  8
2
 62
7
  6
CONTINUOUS
 10
81.724021
 20
79.347064
 11
81.878976
 21
79.344004
  0
LINE
  8
2
 62
7
  6
CONTINUOUS
 10
81.878976
 20
79.344004
 11
82.068815
 21
79.333914
  0
LINE
  8
2
 62
7
  6
CONTINUOUS
 10
82.068815
 20
79.333914
 11
82.287338
 21
79.313803
  0
LINE
  8
2
 62
7
  6
CONTINUOUS
 10
82.287338
 20
79.313803
 11
82.527750
 21
79.281436
  0
LINE
  8
2
 62
7
  6
CONTINUOUS
 10
82.527750
 20
79.281436
 11
82.782965
 21
79.235763
  0
LINE
  8
2
 62
7
  6
CONTINUOUS
 10
82.782965
 20
79.235763
 11
83.045848
 21
79.177142
  0
LINE
  8
2
 62
7
  6
CONTINUOUS
 10
83.045848
 20
79.177142
 11
83.309399
 21
79.107346
  0
LINE
  8
2
 62
7
  6
CONTINUOUS
 10
83.309399
 20
79.107346
 11
83.566870
 21
79.029368
  0
LINE
  8
2
 62
7
  6
CONTINUOUS
 10
83.566870
 20
79.029368
 11
83.811849
 21
78.947079
  0
LINE
  8
2
 62
7
  6
CONTINUOUS
 10
83.811849
 20
78.947079
 11
84.038310
 21
78.864804
  0
LINE
  8
2
 62
7
  6
CONTINUOUS
 10
84.038310
 20
78.864804
 11
84.240677
 21
78.786901
  0
LINE
  8
2
 62
7
  6
CONTINUOUS
 10
84.240677
 20
78.786901
 11
84.413908
 21
78.717401
  0
LINE
  8
2
 62
7
  6
CONTINUOUS
 10
84.413908
 20
78.717401
 11
84.553602
 21
78.659747
  0
LINE
  8
2
 62
7
  6
CONTINUOUS
 10
84.553602
 20
78.659747
 11
84.656130
 21
78.616651
  0
LINE
  8
2
 62
7
  6
CONTINUOUS
 10
84.656130
 20
78.616651
 11
84.718773
 21
78.590035
  0
LINE
  8
2
 62
7
  6
CONTINUOUS
 10
84.718773
 20
78.590035
 11
84.739845
 21
78.581038
  0
LINE
  8
2
 62
7
  6
CONTINUOUS
 10
84.739845
 20
78.581038
 11
84.760916
 21
78.572020
  0
LINE
  8
2
 62
7
  6
CONTINUOUS
 10
84.760916
 20
78.572020
 11
84.823560
 21
78.545092
  0
LINE
  8
2
 62
7
  6
CONTINUOUS
 10
84.823560
 20
78.545092
 11
84.926087
 21
78.500669
  0
LINE
  8
2
 62
7
  6
CONTINUOUS
 10
84.926087
 20
78.500669
 11
85.065781
 21
78.439552
  0
LINE
  8
2
 62
7
  6
CONTINUOUS
 10
85.065781
 20
78.439552
 11
85.239012
 21
78.363048
  0
LINE
  8
2
 62
7
  6
CONTINUOUS
 10
85.239012
 20
78.363048
 11
85.441379
 21
78.273083
  0
LINE
  8
2
 62
7
  6
CONTINUOUS
 10
85.441379
 20
78.273083
 11
85.667839
 21
78.172248
  0
LINE
  8
2
 62
7
  6
CONTINUOUS
 10
85.667839
 20
78.172248
 11
85.912818
 21
78.063760
  0
LINE
  8
2
 62
7
  6
CONTINUOUS
 10
85.912818
 20
78.063760
 11
86.170289
 21
77.951311
  0
LINE
  8
2
 62
7
  6
CONTINUOUS
 10
86.170289
 20
77.951311
 11
86.433839
 21
77.838831
  0
LINE
  8
2
 62
7
  6
CONTINUOUS
 10
86.433839
 20
77.838831
 11
86.696722
 21
77.730196
  0
LINE
  8
2
 62
7
  6
CONTINUOUS
 10
86.696722
 20
77.730196
 11
86.951936
 21
77.628922
  0
LINE
  8
2
 62
7
  6
CONTINUOUS
 10
86.951936
 20
77.628922
 11
87.192348
 21
77.537921
  0
LINE
  8
2
 62
7
  6
CONTINUOUS
 10
87.192348
 20
77.537921
 11
87.410871
 21
77.459343
  0
LINE
  8
2
 62
7
  6
CONTINUOUS
 10
87.410871
 20
77.459343
 11
87.600710
 21
77.394545
  0
LINE
  8
2
 62
7
  6
CONTINUOUS
 10
87.600710
 20
77.394545
 11
87.755665
 21
77.344184
  0
LINE
  8
2
 62
7
  6
CONTINUOUS
 10
87.755665
 20
77.344184
 11
87.870453
 21
77.308403
  0
LINE
  8
2
 62
7
  6
CONTINUOUS
 10
87.870453
 20
77.308403
 11
87.941028
 21
77.287066
  0
LINE
  8
2
 62
7
  6
CONTINUOUS
 10
87.941028
 20
77.287066
 11
87.964843
 21
77.279981
  0
LINE
  8
2
 62
7
  6
CONTINUOUS
 10
87.964843
 20
77.279981
 11
87.988695
 21
77.272944
  0
LINE
  8
2
 62
7
  6
CONTINUOUS
 10
87.988695
 20
77.272944
 11
88.059811
 21
77.252307
  0
LINE
  8
2
 62
7
  6
CONTINUOUS
 10
88.059811
 20
77.252307
 11
88.176786
 21
77.219464
  0
LINE
  8
2
 62
7
  6
CONTINUOUS
 10
88.176786
 20
77.219464
 11
88.337031
 21
77.176632
  0
LINE
  8
2
 62
7
  6
CONTINUOUS
 10
88.337031
 20
77.176632
 11
88.536503
 21
77.126698
  0
LINE
  8
2
 62
7
  6
CONTINUOUS
 10
88.536503
 20
77.126698
 11
88.769487
 21
77.072999
  0
LINE
  8
2
 62
7
  6
CONTINUOUS
 10
88.769487
 20
77.072999
 11
89.028554
 21
77.019061
  0
LINE
  8
2
 62
7
  6
CONTINUOUS
 10
89.028554
 20
77.019061
 11
89.304756
 21
76.968295
  0
LINE
  8
2
 62
7
  6
CONTINUOUS
 10
89.304756
 20
76.968295
 11
89.588104
 21
76.923694
  0
LINE
  8
2
 62
7
  6
CONTINUOUS
 10
89.588104
 20
76.923694
 11
89.868263
 21
76.887547
  0
LINE
  8
2
 62
7
  6
CONTINUOUS
 10
89.868263
 20
76.887547
 11
90.135377
 21
76.861217
  0
LINE
  8
2
 62
7
  6
CONTINUOUS
 10
90.135377
 20
76.861217
 11
90.380871
 21
76.845012
  0
LINE
  8
2
 62
7
  6
CONTINUOUS
 10
90.380871
 20
76.845012
 11
90.598083
 21
76.838179
  0
LINE
  8
2
 62
7
  6
CONTINUOUS
 10
90.598083
 20
76.838179
 11
90.782602
 21
76.839027
  0
LINE
  8
2
 62
7
  6
CONTINUOUS
 10
90.782602
 20
76.839027
 11
90.932249
 21
76.845168
  0
LINE
  8
2
 62
7
  6
CONTINUOUS
 10
90.932249
 20
76.845168
 11
91.046710
 21
76.853865
  0
LINE
  8
2
 62
7
  6
CONTINUOUS
 10
91.046710
 20
76.853865
 11
91.126901
 21
76.862420
  0
LINE
  8
2
 62
7
  6
CONTINUOUS
 10
91.126901
 20
76.862420
 11
91.174222
 21
76.868563
  0
LINE
  8
2
 62
7
  6
CONTINUOUS
 10
91.174222
 20
76.868563
 11
91.189845
 21
76.870787
  0
LINE
  8
2
 62
7
  6
CONTINUOUS
 10
91.189845
 20
76.870787
 11
91.205318
 21
76.873091
  0
LINE
  8
2
 62
7
  6
CONTINUOUS
 10
91.205318
 20
76.873091
 11
91.250435
 21
76.880404
  0
LINE
  8
2
 62
7
  6
CONTINUOUS
 10
91.250435
 20
76.880404
 11
91.321480
 21
76.893840
  0
LINE
  8
2
 62
7
  6
CONTINUOUS
 10
91.321480
 20
76.893840
 11
91.412851
 21
76.914969
  0
LINE
  8
2
 62
7
  6
CONTINUOUS
 10
91.412851
 20
76.914969
 11
91.517834
 21
76.945446
  0
LINE
  8
2
 62
7
  6
CONTINUOUS
 10
91.517834
 20
76.945446
 11
91.629473
 21
76.986601
  0
LINE
  8
2
 62
7
  6
CONTINUOUS
 10
91.629473
 20
76.986601
 11
91.741393
 21
77.039072
  0
LINE
  8
2
 62
7
  6
CONTINUOUS
 10
91.741393
 20
77.039072
 11
91.848423
 21
77.102547
  0
LINE
  8
2
 62
7
  6
CONTINUOUS
 10
91.848423
 20
77.102547
 11
91.946953
 21
77.175659
  0
LINE
  8
2
 62
7
  6
CONTINUOUS
 10
91.946953
 20
77.175659
 11
92.034977
 21
77.256054
  0
LINE
  8
2
 62
7
  6
CONTINUOUS
 10
92.034977
 20
77.256054
 11
92.111862
 21
77.340604
  0
LINE
  8
2
 62
7
  6
CONTINUOUS
 10
92.111862
 20
77.340604
 11
92.177949
 21
77.425715
  0
LINE
  8
2
 62
7
  6
CONTINUOUS
 10
92.177949
 20
77.425715
 11
92.234062
 21
77.507677
  0
LINE
  8
2
 62
7
  6
CONTINUOUS
 10
92.234062
 20
77.507677
 11
92.281080
 21
77.582980
  0
LINE
  8
2
 62
7
  6
CONTINUOUS
 10
92.281080
 20
77.582980
 11
92.319630
 21
77.648564
  0
LINE
  8
2
 62
7
  6
CONTINUOUS
 10
92.319630
 20
77.648564
 11
92.349954
 21
77.701952
  0
LINE
  8
2
 62
7
  6
CONTINUOUS
 10
92.349954
 20
77.701952
 11
92.371955
 21
77.741305
  0
LINE
  8
2
 62
7
  6
CONTINUOUS
 10
92.371955
 20
77.741305
 11
92.385345
 21
77.765384
  0
LINE
  8
2
 62
7
  6
CONTINUOUS
 10
92.385345
 20
77.765384
 11
92.389846
 21
77.773486
  0
LINE
  8
2
 62
7
  6
CONTINUOUS
 10
77.089843
 20
78.715630
 11
77.094344
 21
78.723578
  0
LINE
  8
2
 62
7
  6
CONTINUOUS
 10
77.094344
 20
78.723578
 11
77.107734
 21
78.747206
  0
LINE
  8
2
 62
7
  6
CONTINUOUS
 10
77.107734
 20
78.747206
 11
77.129735
 21
78.785873
  0
LINE
  8
2
 62
7
  6
CONTINUOUS
 10
77.129735
 20
78.785873
 11
77.160060
 21
78.838544
  0
LINE
  8
2
 62
7
  6
CONTINUOUS
 10
77.160060
 20
78.838544
 11
77.198609
 21
78.903824
  0
LINE
  8
2
 62
7
  6
CONTINUOUS
 10
77.198609
 20
78.903824
 11
77.245628
 21
78.980004
  0
LINE
  8
2
 62
7
  6
CONTINUOUS
 10
77.245628
 20
78.980004
 11
77.301741
 21
79.065118
  0
LINE
  8
2
 62
7
  6
CONTINUOUS
 10
77.301741
 20
79.065118
 11
77.367828
 21
79.156980
  0
LINE
  8
2
 62
7
  6
CONTINUOUS
 10
77.367828
 20
79.156980
 11
77.444713
 21
79.253236
  0
LINE
  8
2
 62
7
  6
CONTINUOUS
 10
77.444713
 20
79.253236
 11
77.532737
 21
79.351398
  0
LINE
  8
2
 62
7
  6
CONTINUOUS
 10
77.532737
 20
79.351398
 11
77.631267
 21
79.448891
  0
LINE
  8
2
 62
7
  6
CONTINUOUS
 10
77.631267
 20
79.448891
 11
77.738297
 21
79.543094
  0
LINE
  8
2
 62
7
  6
CONTINUOUS
 10
77.738297
 20
79.543094
 11
77.850217
 21
79.631398
  0
LINE
  8
2
 62
7
  6
CONTINUOUS
 10
77.850217
 20
79.631398
 11
77.961856
 21
79.711274
  0
LINE
  8
2
 62
7
  6
CONTINUOUS
 10
77.961856
 20
79.711274
 11
78.066839
 21
79.780351
  0
LINE
  8
2
 62
7
  6
CONTINUOUS
 10
78.066839
 20
79.780351
 11
78.158209
 21
79.836512
  0
LINE
  8
2
 62
7
  6
CONTINUOUS
 10
78.158209
 20
79.836512
 11
78.229254
 21
79.877984
  0
LINE
  8
2
 62
7
  6
CONTINUOUS
 10
78.229254
 20
79.877984
 11
78.274371
 21
79.903426
  0
LINE
  8
2
 62
7
  6
CONTINUOUS
 10
78.274371
 20
79.903426
 11
78.289844
 21
79.912001
  0
LINE
  8
2
 62
7
  6
CONTINUOUS
 10
78.289844
 20
79.912001
 11
78.305467
 21
79.920585
  0
LINE
  8
2
 62
7
  6
CONTINUOUS
 10
78.305467
 20
79.920585
 11
78.352788
 21
79.946144
  0
LINE
  8
2
 62
7
  6
CONTINUOUS
 10
78.352788
 20
79.946144
 11
78.432979
 21
79.988059
  0
LINE
  8
2
 62
7
  6
CONTINUOUS
 10
78.432979
 20
79.988059
 11
78.547440
 21
80.045159
  0
LINE
  8
2
 62
7
  6
CONTINUOUS
 10
78.547440
 20
80.045159
 11
78.697087
 21
80.115579
  0
LINE
  8
2
 62
7
  6
CONTINUOUS
 10
78.697087
 20
80.115579
 11
78.881605
 21
80.196653
  0
LINE
  8
2
 62
7
  6
CONTINUOUS
 10
78.881605
 20
80.196653
 11
79.098817
 21
80.284919
  0
LINE
  8
2
 62
7
  6
CONTINUOUS
 10
79.098817
 20
80.284919
 11
79.344311
 21
80.376272
  0
LINE
  8
2
 62
7
  6
CONTINUOUS
 10
79.344311
 20
80.376272
 11
79.611424
 21
80.466277
  0
LINE
  8
2
 62
7
  6
CONTINUOUS
 10
79.611424
 20
80.466277
 11
79.891583
 21
80.550600
  0
LINE
  8
2
 62
7
  6
CONTINUOUS
 10
79.891583
 20
80.550600
 11
80.174930
 21
80.625503
  0
LINE
  8
2
 62
7
  6
CONTINUOUS
 10
80.174930
 20
80.625503
 11
80.451132
 21
80.688291
  0
LINE
  8
2
 62
7
  6
CONTINUOUS
 10
80.451132
 20
80.688291
 11
80.710198
 21
80.737622
  0
LINE
  8
2
 62
7
  6
CONTINUOUS
 10
80.710198
 20
80.737622
 11
80.943183
 21
80.773610
  0
LINE
  8
2
 62
7
  6
CONTINUOUS
 10
80.943183
 20
80.773610
 11
81.142655
 21
80.797680
  0
LINE
  8
2
 62
7
  6
CONTINUOUS
 10
81.142655
 20
80.797680
 11
81.302900
 21
80.812189
  0
LINE
  8
2
 62
7
  6
CONTINUOUS
 10
81.302900
 20
80.812189
 11
81.419874
 21
80.819886
  0
LINE
  8
2
 62
7
  6
CONTINUOUS
 10
81.419874
 20
80.819886
 11
81.490990
 21
80.823310
  0
LINE
  8
2
 62
7
  6
CONTINUOUS
 10
81.490990
 20
80.823310
 11
81.514842
 21
80.824239
  0
LINE
  8
2
 62
7
  6
CONTINUOUS
 10
81.514842
 20
80.824239
 11
81.538657
 21
80.825054
  0
LINE
  8
2
 62
7
  6
CONTINUOUS
 10
81.538657
 20
80.825054
 11
81.609232
 21
80.826812
  0
LINE
  8
2
 62
7
  6
CONTINUOUS
 10
81.609232
 20
80.826812
 11
81.724021
 21
80.827576
  0
LINE
  8
2
 62
7
  6
CONTINUOUS
 10
81.724021
 20
80.827576
 11
81.878976
 21
80.824516
  0
LINE
  8
2
 62
7
  6
CONTINUOUS
 10
81.878976
 20
80.824516
 11
82.068815
 21
80.814427
  0
LINE
  8
2
 62
7
  6
CONTINUOUS
 10
82.068815
 20
80.814427
 11
82.287338
 21
80.794315
  0
LINE
  8
2
 62
7
  6
CONTINUOUS
 10
82.287338
 20
80.794315
 11
82.527750
 21
80.761948
  0
LINE
  8
2
 62
7
  6
CONTINUOUS
 10
82.527750
 20
80.761948
 11
82.782965
 21
80.716275
  0
LINE
  8
2
 62
7
  6
CONTINUOUS
 10
82.782965
 20
80.716275
 11
83.045848
 21
80.657654
  0
LINE
  8
2
 62
7
  6
CONTINUOUS
 10
83.045848
 20
80.657654
 11
83.309399
 21
80.587858
  0
LINE
  8
2
 62
7
  6
CONTINUOUS
 10
83.309399
 20
80.587858
 11
83.566870
 21
80.509880
  0
LINE
  8
2
 62
7
  6
CONTINUOUS
 10
83.566870
 20
80.509880
 11
83.811849
 21
80.427591
  0
LINE
  8
2
 62
7
  6
CONTINUOUS
 10
83.811849
 20
80.427591
 11
84.038310
 21
80.345316
  0
LINE
  8
2
 62
7
  6
CONTINUOUS
 10
84.038310
 20
80.345316
 11
84.240677
 21
80.267414
  0
LINE
  8
2
 62
7
  6
CONTINUOUS
 10
84.240677
 20
80.267414
 11
84.413908
 21
80.197913
  0
LINE
  8
2
 62
7
  6
CONTINUOUS
 10
84.413908
 20
80.197913
 11
84.553602
 21
80.140259
  0
LINE
  8
2
 62
7
  6
CONTINUOUS
 10
84.553602
 20
80.140259
 11
84.656130
 21
80.097163
  0
LINE
  8
2
 62
7
  6
CONTINUOUS
 10
84.656130
 20
80.097163
 11
84.718773
 21
80.070547
  0
LINE
  8
2
 62
7
  6
CONTINUOUS
 10
84.718773
 20
80.070547
 11
84.739845
 21
80.061550
  0
LINE
  8
2
 62
7
  6
CONTINUOUS
 10
84.739845
 20
80.061550
 11
84.760916
 21
80.052532
  0
LINE
  8
2
 62
7
  6
CONTINUOUS
 10
84.760916
 20
80.052532
 11
84.823560
 21
80.025604
  0
LINE
  8
2
 62
7
  6
CONTINUOUS
 10
84.823560
 20
80.025604
 11
84.926087
 21
79.981182
  0
LINE
  8
2
 62
7
  6
CONTINUOUS
 10
84.926087
 20
79.981182
 11
85.065781
 21
79.920064
  0
LINE
  8
2
 62
7
  6
CONTINUOUS
 10
85.065781
 20
79.920064
 11
85.239012
 21
79.843560
  0
LINE
  8
2
 62
7
  6
CONTINUOUS
 10
85.239012
 20
79.843560
 11
85.441379
 21
79.753595
  0
LINE
  8
2
 62
7
  6
CONTINUOUS
 10
85.441379
 20
79.753595
 11
85.667839
 21
79.652760
  0
LINE
  8
2
 62
7
  6
CONTINUOUS
 10
85.667839
 20
79.652760
 11
85.912818
 21
79.544272
  0
LINE
  8
2
 62
7
  6
CONTINUOUS
 10
85.912818
 20
79.544272
 11
86.170289
 21
79.431823
  0
LINE
  8
2
 62
7
  6
CONTINUOUS
 10
86.170289
 20
79.431823
 11
86.433839
 21
79.319344
  0
LINE
  8
2
 62
7
  6
CONTINUOUS
 10
86.433839
 20
79.319344
 11
86.696722
 21
79.210708
  0
LINE
  8
2
 62
7
  6
CONTINUOUS
 10
86.696722
 20
79.210708
 11
86.951936
 21
79.109435
  0
LINE
  8
2
 62
7
  6
CONTINUOUS
 10
86.951936
 20
79.109435
 11
87.192348
 21
79.018434
  0
LINE
  8
2
 62
7
  6
CONTINUOUS
 10
87.192348
 20
79.018434
 11
87.410871
 21
78.939855
  0
LINE
  8
2
 62
7
  6
CONTINUOUS
 10
87.410871
 20
78.939855
 11
87.600710
 21
78.875057
  0
LINE
  8
2
 62
7
  6
CONTINUOUS
 10
87.600710
 20
78.875057
 11
87.755665
 21
78.824696
  0
LINE
  8
2
 62
7
  6
CONTINUOUS
 10
87.755665
 20
78.824696
 11
87.870453
 21
78.788916
  0
LINE
  8
2
 62
7
  6
CONTINUOUS
 10
87.870453
 20
78.788916
 11
87.941028
 21
78.767578
  0
LINE
  8
2
 62
7
  6
CONTINUOUS
 10
87.941028
 20
78.767578
 11
87.964843
 21
78.760493
  0
LINE
  8
2
 62
7
  6
CONTINUOUS
 10
87.964843
 20
78.760493
 11
87.988695
 21
78.753456
  0
LINE
  8
2
 62
7
  6
CONTINUOUS
 10
87.988695
 20
78.753456
 11
88.059811
 21
78.732819
  0
LINE
  8
2
 62
7
  6
CONTINUOUS
 10
88.059811
 20
78.732819
 11
88.176786
 21
78.699976
  0
LINE
  8
2
 62
7
  6
CONTINUOUS
 10
88.176786
 20
78.699976
 11
88.337031
 21
78.657144
  0
LINE
  8
2
 62
7
  6
CONTINUOUS
 10
88.337031
 20
78.657144
 11
88.536503
 21
78.607210
  0
LINE
  8
2
 62
7
  6
CONTINUOUS
 10
88.536503
 20
78.607210
 11
88.769487
 21
78.553511
  0
LINE
  8
2
 62
7
  6
CONTINUOUS
 10
88.769487
 20
78.553511
 11
89.028554
 21
78.499573
  0
LINE
  8
2
 62
7
  6
CONTINUOUS
 10
89.028554
 20
78.499573
 11
89.304756
 21
78.448807
  0
LINE
  8
2
 62
7
  6
CONTINUOUS
 10
89.304756
 20
78.448807
 11
89.588104
 21
78.404207
  0
LINE
  8
2
 62
7
  6
CONTINUOUS
 10
89.588104
 20
78.404207
 11
89.868263
 21
78.368060
  0
LINE
  8
2
 62
7
  6
CONTINUOUS
 10
89.868263
 20
78.368060
 11
90.135377
 21
78.341729
  0
LINE
  8
2
 62
7
  6
CONTINUOUS
 10
90.135377
 20
78.341729
 11
90.380871
 21
78.325524
  0
LINE
  8
2
 62
7
  6
CONTINUOUS
 10
90.380871
 20
78.325524
 11
90.598083
 21
78.318692
  0
LINE
  8
2
 62
7
  6
CONTINUOUS
 10
90.598083
 20
78.318692
 11
90.782602
 21
78.319539
  0
LINE
  8
2
 62
7
  6
CONTINUOUS
 10
90.782602
 20
78.319539
 11
90.932249
 21
78.325681
  0
LINE
  8
2
 62
7
  6
CONTINUOUS
 10
90.932249
 20
78.325681
 11
91.046710
 21
78.334378
  0
LINE
  8
2
 62
7
  6
CONTINUOUS
 10
91.046710
 20
78.334378
 11
91.126901
 21
78.342932
  0
LINE
  8
2
 62
7
  6
CONTINUOUS
 10
91.126901
 20
78.342932
 11
91.174222
 21
78.349076
  0
LINE
  8
2
 62
7
  6
CONTINUOUS
 10
91.174222
 20
78.349076
 11
91.189845
 21
78.351300
  0
LINE
  8
2
 62
7
  6
CONTINUOUS
 10
91.189845
 20
78.351300
 11
91.205318
 21
78.353603
  0
LINE
  8
2
 62
7
  6
CONTINUOUS
 10
91.205318
 20
78.353603
 11
91.250435
 21
78.360916
  0
LINE
  8
2
 62
7
  6
CONTINUOUS
 10
91.250435
 20
78.360916
 11
91.321480
 21
78.374352
  0
LINE
  8
2
 62
7
  6
CONTINUOUS
 10
91.321480
 20
78.374352
 11
91.412851
 21
78.395481
  0
LINE
  8
2
 62
7
  6
CONTINUOUS
 10
91.412851
 20
78.395481
 11
91.517834
 21
78.425958
  0
LINE
  8
2
 62
7
  6
CONTINUOUS
 10
91.517834
 20
78.425958
 11
91.629473
 21
78.467113
  0
LINE
  8
2
 62
7
  6
CONTINUOUS
 10
91.629473
 20
78.467113
 11
91.741393
 21
78.519585
  0
LINE
  8
2
 62
7
  6
CONTINUOUS
 10
91.741393
 20
78.519585
 11
91.848423
 21
78.583059
  0
LINE
  8
2
 62
7
  6
CONTINUOUS
 10
91.848423
 20
78.583059
 11
91.946953
 21
78.656171
  0
LINE
  8
2
 62
7
  6
CONTINUOUS
 10
91.946953
 20
78.656171
 11
92.034977
 21
78.736566
  0
LINE
  8
2
 62
7
  6
CONTINUOUS
 10
92.034977
 20
78.736566
 11
92.111862
 21
78.821116
  0
LINE
  8
2
 62
7
  6
CONTINUOUS
 10
92.111862
 20
78.821116
 11
92.177949
 21
78.906227
  0
LINE
  8
2
 62
7
  6
CONTINUOUS
 10
92.177949
 20
78.906227
 11
92.234062
 21
78.988189
  0
LINE
  8
2
 62
7
  6
CONTINUOUS
 10
92.234062
 20
78.988189
 11
92.281080
 21
79.063493
  0
LINE
  8
2
 62
7
  6
CONTINUOUS
 10
92.281080
 20
79.063493
 11
92.319630
 21
79.129076
  0
LINE
  8
2
 62
7
  6
CONTINUOUS
 10
92.319630
 20
79.129076
 11
92.349954
 21
79.182464
  0
LINE
  8
2
 62
7
  6
CONTINUOUS
 10
92.349954
 20
79.182464
 11
92.371955
 21
79.221818
  0
LINE
  8
2
 62
7
  6
CONTINUOUS
 10
92.371955
 20
79.221818
 11
92.385345
 21
79.245896
  0
LINE
  8
2
 62
7
  6
CONTINUOUS
 10
92.385345
 20
79.245896
 11
92.389846
 21
79.253998
  0
LINE
  8
1
 62
7
  6
CONTINUOUS
 10
77.089843
 20
127.548823
 11
77.089843
 21
78.715630
  0
LINE
  8
1
 62
7
  6
CONTINUOUS
 10
77.089843
 20
77.235118
 11
77.089843
 21
62.250593
  0
LINE
  8
1
 62
7
  6
CONTINUOUS
 10
92.389846
 20
127.548823
 11
92.389846
 21
79.253998
  0
LINE
  8
1
 62
7
  6
CONTINUOUS
 10
92.389846
 20
77.773486
 11
92.389846
 21
62.250593
  0
LINE
  8
2
 62
7
  6
DASHDOT
 10
84.739845
 20
59.059554
 11
84.739845
 21
257.633226
  0
LINE
  8
2
 62
7
  6
DASHDOT
 10
183.295806
 20
255.432909
 11
183.295806
 21
55.606231
  0
TEXT
  8
2
 62
7
  6
CONTINUOUS
 10
158.292914
 20
69.439028
 40
7.000000
 41
0.457143
  1
 
  7
KANJI
 50
0.000000
 51
0.000000
  0
LINE
  8
2
 62
7
  6
CONTINUOUS
 10
175.645805
 20
78.735119
 11
175.650306
 21
78.742914
  0
LINE
  8
2
 62
7
  6
CONTINUOUS
 10
175.650306
 20
78.742914
 11
175.663696
 21
78.766086
  0
LINE
  8
2
 62
7
  6
CONTINUOUS
 10
175.663696
 20
78.766086
 11
175.685697
 21
78.804008
  0
LINE
  8
2
 62
7
  6
CONTINUOUS
 10
175.685697
 20
78.804008
 11
175.716021
 21
78.855666
  0
LINE
  8
2
 62
7
  6
CONTINUOUS
 10
175.716021
 20
78.855666
 11
175.754571
 21
78.919697
  0
LINE
  8
2
 62
7
  6
CONTINUOUS
 10
175.754571
 20
78.919697
 11
175.801589
 21
78.994435
  0
LINE
  8
2
 62
7
  6
CONTINUOUS
 10
175.801589
 20
78.994435
 11
175.857703
 21
79.077961
  0
LINE
  8
2
 62
7
  6
CONTINUOUS
 10
175.857703
 20
79.077961
 11
175.923789
 21
79.168147
  0
LINE
  8
2
 62
7
  6
CONTINUOUS
 10
175.923789
 20
79.168147
 11
176.000675
 21
79.262700
  0
LINE
  8
2
 62
7
  6
CONTINUOUS
 10
176.000675
 20
79.262700
 11
176.088698
 21
79.359192
  0
LINE
  8
2
 62
7
  6
CONTINUOUS
 10
176.088698
 20
79.359192
 11
176.187229
 21
79.455102
  0
LINE
  8
2
 62
7
  6
CONTINUOUS
 10
176.187229
 20
79.455102
 11
176.294259
 21
79.547857
  0
LINE
  8
2
 62
7
  6
CONTINUOUS
 10
176.294259
 20
79.547857
 11
176.406178
 21
79.634883
  0
LINE
  8
2
 62
7
  6
CONTINUOUS
 10
176.406178
 20
79.634883
 11
176.517818
 21
79.713674
  0
LINE
  8
2
 62
7
  6
CONTINUOUS
 10
176.517818
 20
79.713674
 11
176.622800
 21
79.781872
  0
LINE
  8
2
 62
7
  6
CONTINUOUS
 10
176.622800
 20
79.781872
 11
176.714171
 21
79.837359
  0
LINE
  8
2
 62
7
  6
CONTINUOUS
 10
176.714171
 20
79.837359
 11
176.785216
 21
79.878358
  0
LINE
  8
2
 62
7
  6
CONTINUOUS
 10
176.785216
 20
79.878358
 11
176.830333
 21
79.903520
  0
LINE
  8
2
 62
7
  6
CONTINUOUS
 10
176.830333
 20
79.903520
 11
176.845806
 21
79.912002
  0
LINE
  8
2
 62
7
  6
CONTINUOUS
 10
176.845806
 20
79.912002
 11
176.861429
 21
79.920494
  0
LINE
  8
2
 62
7
  6
CONTINUOUS
 10
176.861429
 20
79.920494
 11
176.908750
 21
79.945787
  0
LINE
  8
2
 62
7
  6
CONTINUOUS
 10
176.908750
 20
79.945787
 11
176.988941
 21
79.987281
  0
LINE
  8
2
 62
7
  6
CONTINUOUS
 10
176.988941
 20
79.987281
 11
177.103401
 21
80.043844
  0
LINE
  8
2
 62
7
  6
CONTINUOUS
 10
177.103401
 20
80.043844
 11
177.253048
 21
80.113657
  0
LINE
  8
2
 62
7
  6
CONTINUOUS
 10
177.253048
 20
80.113657
 11
177.437567
 21
80.194112
  0
LINE
  8
2
 62
7
  6
CONTINUOUS
 10
177.437567
 20
80.194112
 11
177.654778
 21
80.281810
  0
LINE
  8
2
 62
7
  6
CONTINUOUS
 10
177.654778
 20
80.281810
 11
177.900272
 21
80.372706
  0
LINE
  8
2
 62
7
  6
CONTINUOUS
 10
177.900272
 20
80.372706
 11
178.167386
 21
80.462416
  0
LINE
  8
2
 62
7
  6
CONTINUOUS
 10
178.167386
 20
80.462416
 11
178.447544
 21
80.546647
  0
LINE
  8
2
 62
7
  6
CONTINUOUS
 10
178.447544
 20
80.546647
 11
178.730892
 21
80.621677
  0
LINE
  8
2
 62
7
  6
CONTINUOUS
 10
178.730892
 20
80.621677
 11
179.007093
 21
80.684803
  0
LINE
  8
2
 62
7
  6
CONTINUOUS
 10
179.007093
 20
80.684803
 11
179.266160
 21
80.734650
  0
LINE
  8
2
 62
7
  6
CONTINUOUS
 10
179.266160
 20
80.734650
 11
179.499144
 21
80.771275
  0
LINE
  8
2
 62
7
  6
CONTINUOUS
 10
179.499144
 20
80.771275
 11
179.698616
 21
80.796029
  0
LINE
  8
2
 62
7
  6
CONTINUOUS
 10
179.698616
 20
80.796029
 11
179.858861
 21
80.811187
  0
LINE
  8
2
 62
7
  6
CONTINUOUS
 10
179.858861
 20
80.811187
 11
179.975836
 21
80.819417
  0
LINE
  8
2
 62
7
  6
CONTINUOUS
 10
179.975836
 20
80.819417
 11
180.046952
 21
80.823190
  0
LINE
  8
2
 62
7
  6
CONTINUOUS
 10
180.046952
 20
80.823190
 11
180.070804
 21
80.824240
  0
LINE
  8
2
 62
7
  6
CONTINUOUS
 10
180.070804
 20
80.824240
 11
180.094619
 21
80.825179
  0
LINE
  8
2
 62
7
  6
CONTINUOUS
 10
180.094619
 20
80.825179
 11
180.165194
 21
80.827317
  0
LINE
  8
2
 62
7
  6
CONTINUOUS
 10
180.165194
 20
80.827317
 11
180.279982
 21
80.828739
  0
LINE
  8
2
 62
7
  6
CONTINUOUS
 10
180.279982
 20
80.828739
 11
180.434937
 21
80.826639
  0
LINE
  8
2
 62
7
  6
CONTINUOUS
 10
180.434937
 20
80.826639
 11
180.624777
 21
80.817828
  0
LINE
  8
2
 62
7
  6
CONTINUOUS
 10
180.624777
 20
80.817828
 11
180.843299
 21
80.799301
  0
LINE
  8
2
 62
7
  6
CONTINUOUS
 10
180.843299
 20
80.799301
 11
181.083712
 21
80.768781
  0
LINE
  8
2
 62
7
  6
CONTINUOUS
 10
181.083712
 20
80.768781
 11
181.338926
 21
80.725137
  0
LINE
  8
2
 62
7
  6
CONTINUOUS
 10
181.338926
 20
80.725137
 11
181.601810
 21
80.668613
  0
LINE
  8
2
 62
7
  6
CONTINUOUS
 10
181.601810
 20
80.668613
 11
181.865360
 21
80.600856
  0
LINE
  8
2
 62
7
  6
CONTINUOUS
 10
181.865360
 20
80.600856
 11
182.122832
 21
80.524736
  0
LINE
  8
2
 62
7
  6
CONTINUOUS
 10
182.122832
 20
80.524736
 11
182.367811
 21
80.444020
  0
LINE
  8
2
 62
7
  6
CONTINUOUS
 10
182.367811
 20
80.444020
 11
182.594272
 21
80.362973
  0
LINE
  8
2
 62
7
  6
CONTINUOUS
 10
182.594272
 20
80.362973
 11
182.796639
 21
80.285937
  0
LINE
  8
2
 62
7
  6
CONTINUOUS
 10
182.796639
 20
80.285937
 11
182.969870
 21
80.216977
  0
LINE
  8
2
 62
7
  6
CONTINUOUS
 10
182.969870
 20
80.216977
 11
183.109564
 21
80.159606
  0
LINE
  8
2
 62
7
  6
CONTINUOUS
 10
183.109564
 20
80.159606
 11
183.212091
 21
80.116623
  0
LINE
  8
2
 62
7
  6
CONTINUOUS
 10
183.212091
 20
80.116623
 11
183.274734
 21
80.090035
  0
LINE
  8
2
 62
7
  6
CONTINUOUS
 10
183.274734
 20
80.090035
 11
183.295806
 21
80.081040
  0
LINE
  8
2
 62
7
  6
CONTINUOUS
 10
183.295806
 20
80.081040
 11
183.316878
 21
80.072020
  0
LINE
  8
2
 62
7
  6
CONTINUOUS
 10
183.316878
 20
80.072020
 11
183.379521
 21
80.045064
  0
LINE
  8
2
 62
7
  6
CONTINUOUS
 10
183.379521
 20
80.045064
 11
183.482049
 21
80.000528
  0
LINE
  8
2
 62
7
  6
CONTINUOUS
 10
183.482049
 20
80.000528
 11
183.621742
 21
79.939128
  0
LINE
  8
2
 62
7
  6
CONTINUOUS
 10
183.621742
 20
79.939128
 11
183.794973
 21
79.862084
  0
LINE
  8
2
 62
7
  6
CONTINUOUS
 10
183.794973
 20
79.862084
 11
183.997340
 21
79.771251
  0
LINE
  8
2
 62
7
  6
CONTINUOUS
 10
183.997340
 20
79.771251
 11
184.223801
 21
79.669189
  0
LINE
  8
2
 62
7
  6
CONTINUOUS
 10
184.223801
 20
79.669189
 11
184.468779
 21
79.559128
  0
LINE
  8
2
 62
7
  6
CONTINUOUS
 10
184.468779
 20
79.559128
 11
184.726251
 21
79.444821
  0
LINE
  8
2
 62
7
  6
CONTINUOUS
 10
184.726251
 20
79.444821
 11
184.989801
 21
79.330302
  0
LINE
  8
2
 62
7
  6
CONTINUOUS
 10
184.989801
 20
79.330302
 11
185.252683
 21
79.219570
  0
LINE
  8
2
 62
7
  6
CONTINUOUS
 10
185.252683
 20
79.219570
 11
185.507898
 21
79.116268
  0
LINE
  8
2
 62
7
  6
CONTINUOUS
 10
185.507898
 20
79.116268
 11
185.748310
 21
79.023420
  0
LINE
  8
2
 62
7
  6
CONTINUOUS
 10
185.748310
 20
79.023420
 11
185.966832
 21
78.943256
  0
LINE
  8
2
 62
7
  6
CONTINUOUS
 10
185.966832
 20
78.943256
 11
186.156671
 21
78.877180
  0
LINE
  8
2
 62
7
  6
CONTINUOUS
 10
186.156671
 20
78.877180
 11
186.311626
 21
78.825859
  0
LINE
  8
2
 62
7
  6
CONTINUOUS
 10
186.311626
 20
78.825859
 11
186.426415
 21
78.789421
  0
LINE
  8
2
 62
7
  6
CONTINUOUS
 10
186.426415
 20
78.789421
 11
186.496990
 21
78.767703
  0
LINE
  8
2
 62
7
  6
CONTINUOUS
 10
186.496990
 20
78.767703
 11
186.520805
 21
78.760495
  0
LINE
  8
2
 62
7
  6
CONTINUOUS
 10
186.520805
 20
78.760495
 11
186.544657
 21
78.753336
  0
LINE
  8
2
 62
7
  6
CONTINUOUS
 10
186.544657
 20
78.753336
 11
186.615773
 21
78.732350
  0
LINE
  8
2
 62
7
  6
CONTINUOUS
 10
186.615773
 20
78.732350
 11
186.732747
 21
78.698974
  0
LINE
  8
2
 62
7
  6
CONTINUOUS
 10
186.732747
 20
78.698974
 11
186.892992
 21
78.655494
  0
LINE
  8
2
 62
7
  6
CONTINUOUS
 10
186.892992
 20
78.655494
 11
187.092464
 21
78.604875
  0
LINE
  8
2
 62
7
  6
CONTINUOUS
 10
187.092464
 20
78.604875
 11
187.325449
 21
78.550539
  0
LINE
  8
2
 62
7
  6
CONTINUOUS
 10
187.325449
 20
78.550539
 11
187.584516
 21
78.496085
  0
LINE
  8
2
 62
7
  6
CONTINUOUS
 10
187.584516
 20
78.496085
 11
187.860718
 21
78.444981
  0
LINE
  8
2
 62
7
  6
CONTINUOUS
 10
187.860718
 20
78.444981
 11
188.144065
 21
78.400254
  0
LINE
  8
2
 62
7
  6
CONTINUOUS
 10
188.144065
 20
78.400254
 11
188.424224
 21
78.364199
  0
LINE
  8
2
 62
7
  6
CONTINUOUS
 10
188.424224
 20
78.364199
 11
188.691338
 21
78.338163
  0
LINE
  8
2
 62
7
  6
CONTINUOUS
 10
188.691338
 20
78.338163
 11
188.936832
 21
78.322415
  0
LINE
  8
2
 62
7
  6
CONTINUOUS
 10
188.936832
 20
78.322415
 11
189.154045
 21
78.316151
  0
LINE
  8
2
 62
7
  6
CONTINUOUS
 10
189.154045
 20
78.316151
 11
189.338564
 21
78.317617
  0
LINE
  8
2
 62
7
  6
CONTINUOUS
 10
189.338564
 20
78.317617
 11
189.488211
 21
78.324365
  0
LINE
  8
2
 62
7
  6
CONTINUOUS
 10
189.488211
 20
78.324365
 11
189.602671
 21
78.333600
  0
LINE
  8
2
 62
7
  6
CONTINUOUS
 10
189.602671
 20
78.333600
 11
189.682863
 21
78.342575
  0
LINE
  8
2
 62
7
  6
CONTINUOUS
 10
189.682863
 20
78.342575
 11
189.730184
 21
78.348986
  0
LINE
  8
2
 62
7
  6
CONTINUOUS
 10
189.730184
 20
78.348986
 11
189.745807
 21
78.351301
  0
LINE
  8
2
 62
7
  6
CONTINUOUS
 10
189.745807
 20
78.351301
 11
189.761280
 21
78.353697
  0
LINE
  8
2
 62
7
  6
CONTINUOUS
 10
189.761280
 20
78.353697
 11
189.806397
 21
78.361290
  0
LINE
  8
2
 62
7
  6
CONTINUOUS
 10
189.806397
 20
78.361290
 11
189.877442
 21
78.375199
  0
LINE
  8
2
 62
7
  6
CONTINUOUS
 10
189.877442
 20
78.375199
 11
189.968813
 21
78.397002
  0
LINE
  8
2
 62
7
  6
CONTINUOUS
 10
189.968813
 20
78.397002
 11
190.073795
 21
78.428358
  0
LINE
  8
2
 62
7
  6
CONTINUOUS
 10
190.073795
 20
78.428358
 11
190.185435
 21
78.470598
  0
LINE
  8
2
 62
7
  6
CONTINUOUS
 10
190.185435
 20
78.470598
 11
190.297354
 21
78.524347
  0
LINE
  8
2
 62
7
  6
CONTINUOUS
 10
190.297354
 20
78.524347
 11
190.404384
 21
78.589270
  0
LINE
  8
2
 62
7
  6
CONTINUOUS
 10
190.404384
 20
78.589270
 11
190.502915
 21
78.663964
  0
LINE
  8
2
 62
7
  6
CONTINUOUS
 10
190.502915
 20
78.663964
 11
190.590938
 21
78.746030
  0
LINE
  8
2
 62
7
  6
CONTINUOUS
 10
190.590938
 20
78.746030
 11
190.667824
 21
78.832283
  0
LINE
  8
2
 62
7
  6
CONTINUOUS
 10
190.667824
 20
78.832283
 11
190.733910
 21
78.919070
  0
LINE
  8
2
 62
7
  6
CONTINUOUS
 10
190.733910
 20
78.919070
 11
190.790024
 21
79.002620
  0
LINE
  8
2
 62
7
  6
CONTINUOUS
 10
190.790024
 20
79.002620
 11
190.837042
 21
79.079366
  0
LINE
  8
2
 62
7
  6
CONTINUOUS
 10
190.837042
 20
79.079366
 11
190.875591
 21
79.146198
  0
LINE
  8
2
 62
7
  6
CONTINUOUS
 10
190.875591
 20
79.146198
 11
190.905916
 21
79.200599
  0
LINE
  8
2
 62
7
  6
CONTINUOUS
 10
190.905916
 20
79.200599
 11
190.927917
 21
79.240698
  0
LINE
  8
2
 62
7
  6
CONTINUOUS
 10
190.927917
 20
79.240698
 11
190.941307
 21
79.265232
  0
LINE
  8
2
 62
7
  6
CONTINUOUS
 10
190.941307
 20
79.265232
 11
190.945808
 21
79.273487
  0
LINE
  8
1
 62
7
  6
CONTINUOUS
 10
175.645805
 20
127.548823
 11
175.645805
 21
78.735119
  0
LINE
  8
1
 62
7
  6
CONTINUOUS
 10
190.945808
 20
127.548823
 11
190.945808
 21
79.273487
  0
LINE
  8
1
 62
7
  6
CONTINUOUS
 10
259.505227
 20
162.123822
 11
249.505227
 21
162.123822
  0
LINE
  8
1
 62
7
  6
CONTINUOUS
 10
249.505227
 20
162.123822
 11
244.505226
 21
161.348823
  0
LINE
  8
1
 62
7
  6
CONTINUOUS
 10
244.428181
 20
162.348823
 11
249.428192
 21
163.123822
  0
LINE
  8
1
 62
7
  6
CONTINUOUS
 10
259.505227
 20
163.123822
 11
249.428192
 21
163.123822
  0
LINE
  8
1
 62
7
  6
CONTINUOUS
 10
259.505227
 20
141.973823
 11
259.505227
 21
163.123822
  0
LINE
  8
1
 62
7
  6
CONTINUOUS
 10
249.505227
 20
160.392521
 11
249.505227
 21
144.492522
  0
LINE
  8
1
 62
7
  6
CONTINUOUS
 10
249.505227
 20
142.973823
 11
244.505226
 21
143.748823
  0
LINE
  8
1
 62
7
  6
CONTINUOUS
 10
259.505227
 20
142.973823
 11
249.505227
 21
142.973823
  0
LINE
  8
1
 62
7
  6
CONTINUOUS
 10
244.428181
 20
142.748823
 11
249.428192
 21
141.973823
  0
LINE
  8
1
 62
7
  6
CONTINUOUS
 10
259.505227
 20
141.973823
 11
249.428192
 21
141.973823
  0
LINE
  8
1
 62
7
  6
CONTINUOUS
 10
237.557779
 20
161.348823
 11
232.147778
 21
160.548822
  0
LINE
  8
1
 62
7
  6
CONTINUOUS
 10
237.505226
 20
162.348823
 11
244.428181
 21
162.348823
  0
LINE
  8
1
 62
7
  6
CONTINUOUS
 10
232.147778
 20
161.548822
 11
237.505226
 21
162.348823
  0
LINE
  8
1
 62
7
  6
CONTINUOUS
 10
237.557779
 20
143.748823
 11
232.147778
 21
144.548823
  0
LINE
  8
1
 62
7
  6
CONTINUOUS
 10
232.147778
 20
143.548823
 11
237.505226
 21
142.748823
  0
LINE
  8
1
 62
7
  6
CONTINUOUS
 10
237.505226
 20
142.748823
 11
244.428181
 21
142.748823
  0
LINE
  8
1
 62
7
  6
CONTINUOUS
 10
236.338334
 20
160.610592
 11
236.338334
 21
152.556594
  0
ARC
  8
1
 62
7
  6
CONTINUOUS
 10
237.809246
 20
159.595424
 40
1.787218
 50
99.794077
 51
145.388047
  0
LINE
  8
1
 62
7
  6
CONTINUOUS
 10
236.338334
 20
144.502596
 11
236.338334
 21
152.556594
  0
ARC
  8
1
 62
7
  6
CONTINUOUS
 10
237.809246
 20
145.517764
 40
1.787218
 50
-145.388047
 51
-99.794077
  0
LINE
  8
1
 62
7
  6
CONTINUOUS
 10
244.505227
 20
161.348823
 11
237.557779
 21
161.348823
  0
LINE
  8
1
 62
7
  6
CONTINUOUS
 10
244.505227
 20
143.748823
 11
237.505226
 21
143.748823
  0
LINE
  8
1
 62
7
  6
CONTINUOUS
 10
232.147778
 20
160.548822
 11
215.623813
 21
160.548822
  0
LINE
  8
1
 62
7
  6
CONTINUOUS
 10
232.518923
 20
144.548823
 11
216.520814
 21
144.548823
  0
LINE
  8
1
 62
7
  6
CONTINUOUS
 10
240.838334
 20
160.381595
 11
236.338334
 21
160.381595
  0
ARC
  8
1
 62
7
  6
CONTINUOUS
 10
240.838334
 20
160.881595
 40
0.500000
 50
-90.000000
 51
0.000000
  0
LINE
  8
1
 62
7
  6
CONTINUOUS
 10
241.338334
 20
160.856594
 11
241.338334
 21
152.556594
  0
ARC
  8
1
 62
7
  6
CONTINUOUS
 10
240.838334
 20
160.856594
 40
0.500000
 50
0.000000
 51
90.000000
  0
LINE
  8
1
 62
7
  6
CONTINUOUS
 10
240.838334
 20
144.731593
 11
236.338334
 21
144.731593
  0
ARC
  8
1
 62
7
  6
CONTINUOUS
 10
240.838334
 20
144.231593
 40
0.500000
 50
0.000000
 51
90.000000
  0
LINE
  8
1
 62
7
  6
CONTINUOUS
 10
241.338334
 20
144.256594
 11
241.338334
 21
152.556594
  0
ARC
  8
1
 62
7
  6
CONTINUOUS
 10
240.838334
 20
144.256594
 40
0.500000
 50
-90.000000
 51
0.000000
  0
LINE
  8
1
 62
7
  6
CONTINUOUS
 10
222.338334
 20
152.556594
 11
222.338334
 21
156.815429
  0
LINE
  8
1
 62
7
  6
CONTINUOUS
 10
236.338337
 20
160.481595
 11
225.158452
 21
159.810032
  0
ARC
  8
1
 62
7
  6
CONTINUOUS
 10
225.338334
 20
156.815429
 40
3.000000
 50
93.437563
 51
180.000000
  0
LINE
  8
1
 62
7
  6
CONTINUOUS
 10
222.338334
 20
152.541052
 11
222.338334
 21
148.282216
  0
LINE
  8
1
 62
7
  6
CONTINUOUS
 10
236.338337
 20
144.616051
 11
225.158452
 21
145.287614
  0
ARC
  8
1
 62
7
  6
CONTINUOUS
 10
225.338334
 20
148.282216
 40
3.000000
 50
180.000000
 51
-93.437563
  0
LINE
  8
4
 62
7
  6
CONTINUOUS
 10
229.897403
 20
150.533896
 11
229.897403
 21
147.033893
  0
LINE
  8
4
 62
7
  6
CONTINUOUS
 10
230.397403
 20
150.533896
 11
230.397403
 21
147.033893
  0
LINE
  8
4
 62
7
  6
CONTINUOUS
 10
228.897403
 20
149.033896
 11
232.397403
 21
149.033896
  0
LINE
  8
4
 62
7
  6
CONTINUOUS
 10
228.897403
 20
149.533896
 11
232.397403
 21
149.533896
  0
LINE
  8
4
 62
7
  6
CONTINUOUS
 10
232.397403
 20
150.033896
 11
228.897403
 21
150.033896
  0
LINE
  8
4
 62
7
  6
CONTINUOUS
 10
229.397403
 20
150.533896
 11
229.397403
 21
147.033893
  0
LINE
  8
4
 62
7
  6
CONTINUOUS
 10
230.897403
 20
150.533896
 11
230.897403
 21
147.033893
  0
LINE
  8
4
 62
7
  6
CONTINUOUS
 10
228.897403
 20
147.533896
 11
232.397403
 21
147.533896
  0
LINE
  8
4
 62
7
  6
CONTINUOUS
 10
228.897403
 20
148.033896
 11
232.397403
 21
148.033896
  0
LINE
  8
4
 62
7
  6
CONTINUOUS
 10
228.897403
 20
148.533896
 11
232.397403
 21
148.533896
  0
LINE
  8
4
 62
7
  6
CONTINUOUS
 10
231.897403
 20
150.533896
 11
231.897403
 21
147.033893
  0
LINE
  8
4
 62
7
  6
CONTINUOUS
 10
231.397403
 20
150.533896
 11
231.397403
 21
147.033893
  0
LINE
  8
2
 62
7
  6
DASHDOT
 10
177.173406
 20
152.548823
 11
272.569828
 21
152.548823
  0
LINE
  8
2
 62
7
  6
CONTINUOUS
 10
216.187111
 20
161.548822
 11
216.185053
 21
161.543883
  0
LINE
  8
2
 62
7
  6
CONTINUOUS
 10
216.185053
 20
161.543883
 11
216.178931
 21
161.529195
  0
LINE
  8
2
 62
7
  6
CONTINUOUS
 10
216.178931
 20
161.529195
 11
216.168869
 21
161.505115
  0
LINE
  8
2
 62
7
  6
CONTINUOUS
 10
216.168869
 20
161.505115
 11
216.154991
 21
161.472139
  0
LINE
  8
2
 62
7
  6
CONTINUOUS
 10
216.154991
 20
161.472139
 11
216.137321
 21
161.430795
  0
LINE
  8
2
 62
7
  6
CONTINUOUS
 10
216.137321
 20
161.430795
 11
216.115716
 21
161.381550
  0
LINE
  8
2
 62
7
  6
CONTINUOUS
 10
216.115716
 20
161.381550
 11
216.089838
 21
161.324772
  0
LINE
  8
2
 62
7
  6
CONTINUOUS
 10
216.089838
 20
161.324772
 11
216.059229
 21
161.260779
  0
LINE
  8
2
 62
7
  6
CONTINUOUS
 10
216.059229
 20
161.260779
 11
216.023449
 21
161.189976
  0
LINE
  8
2
 62
7
  6
CONTINUOUS
 10
216.023449
 20
161.189976
 11
215.982295
 21
161.113050
  0
LINE
  8
2
 62
7
  6
CONTINUOUS
 10
215.982295
 20
161.113050
 11
215.936032
 21
161.031196
  0
LINE
  8
2
 62
7
  6
CONTINUOUS
 10
215.936032
 20
161.031196
 11
215.885591
 21
160.946297
  0
LINE
  8
2
 62
7
  6
CONTINUOUS
 10
215.885591
 20
160.946297
 11
215.832685
 21
160.861025
  0
LINE
  8
2
 62
7
  6
CONTINUOUS
 10
215.832685
 20
160.861025
 11
215.779781
 21
160.778784
  0
LINE
  8
2
 62
7
  6
CONTINUOUS
 10
215.779781
 20
160.778784
 11
215.729935
 21
160.703520
  0
LINE
  8
2
 62
7
  6
CONTINUOUS
 10
215.729935
 20
160.703520
 11
215.686490
 21
160.639374
  0
LINE
  8
2
 62
7
  6
CONTINUOUS
 10
215.686490
 20
160.639374
 11
215.652674
 21
160.590251
  0
LINE
  8
2
 62
7
  6
CONTINUOUS
 10
215.652674
 20
160.590251
 11
215.631185
 21
160.559364
  0
LINE
  8
2
 62
7
  6
CONTINUOUS
 10
215.631185
 20
160.559364
 11
215.623813
 21
160.548822
  0
LINE
  8
2
 62
7
  6
CONTINUOUS
 10
215.623813
 20
160.548822
 11
215.616368
 21
160.538204
  0
LINE
  8
2
 62
7
  6
CONTINUOUS
 10
215.616368
 20
160.538204
 11
215.593824
 21
160.506177
  0
LINE
  8
2
 62
7
  6
CONTINUOUS
 10
215.593824
 20
160.506177
 11
215.555694
 21
160.452239
  0
LINE
  8
2
 62
7
  6
CONTINUOUS
 10
215.555694
 20
160.452239
 11
215.501620
 21
160.375606
  0
LINE
  8
2
 62
7
  6
CONTINUOUS
 10
215.501620
 20
160.375606
 11
215.431906
 21
160.275320
  0
LINE
  8
2
 62
7
  6
CONTINUOUS
 10
215.431906
 20
160.275320
 11
215.348026
 21
160.150438
  0
LINE
  8
2
 62
7
  6
CONTINUOUS
 10
215.348026
 20
160.150438
 11
215.252944
 21
160.000323
  0
LINE
  8
2
 62
7
  6
CONTINUOUS
 10
215.252944
 20
160.000323
 11
215.151118
 21
159.825035
  0
LINE
  8
2
 62
7
  6
CONTINUOUS
 10
215.151118
 20
159.825035
 11
215.048144
 21
159.625776
  0
LINE
  8
2
 62
7
  6
CONTINUOUS
 10
215.048144
 20
159.625776
 11
214.950081
 21
159.405341
  0
LINE
  8
2
 62
7
  6
CONTINUOUS
 10
214.950081
 20
159.405341
 11
214.862588
 21
159.168474
  0
LINE
  8
2
 62
7
  6
CONTINUOUS
 10
214.862588
 20
159.168474
 11
214.790045
 21
158.922046
  0
LINE
  8
2
 62
7
  6
CONTINUOUS
 10
214.790045
 20
158.922046
 11
214.734875
 21
158.674969
  0
LINE
  8
2
 62
7
  6
CONTINUOUS
 10
214.734875
 20
158.674969
 11
214.697212
 21
158.437809
  0
LINE
  8
2
 62
7
  6
CONTINUOUS
 10
214.697212
 20
158.437809
 11
214.675011
 21
158.222097
  0
LINE
  8
2
 62
7
  6
CONTINUOUS
 10
214.675011
 20
158.222097
 11
214.664598
 21
158.039398
  0
LINE
  8
2
 62
7
  6
CONTINUOUS
 10
214.664598
 20
158.039398
 11
214.661544
 21
157.900247
  0
LINE
  8
2
 62
7
  6
CONTINUOUS
 10
214.661544
 20
157.900247
 11
214.661690
 21
157.813094
  0
LINE
  8
2
 62
7
  6
CONTINUOUS
 10
214.661690
 20
157.813094
 11
214.662093
 21
157.783412
  0
LINE
  8
2
 62
7
  6
CONTINUOUS
 10
214.662093
 20
157.783412
 11
214.662676
 21
157.753546
  0
LINE
  8
2
 62
7
  6
CONTINUOUS
 10
214.662676
 20
157.753546
 11
214.665464
 21
157.663690
  0
LINE
  8
2
 62
7
  6
CONTINUOUS
 10
214.665464
 20
157.663690
 11
214.673369
 21
157.513320
  0
LINE
  8
2
 62
7
  6
CONTINUOUS
 10
214.673369
 20
157.513320
 11
214.690590
 21
157.302307
  0
LINE
  8
2
 62
7
  6
CONTINUOUS
 10
214.690590
 20
157.302307
 11
214.721765
 21
157.031843
  0
LINE
  8
2
 62
7
  6
CONTINUOUS
 10
214.721765
 20
157.031843
 11
214.771035
 21
156.705381
  0
LINE
  8
2
 62
7
  6
CONTINUOUS
 10
214.771035
 20
156.705381
 11
214.841168
 21
156.329353
  0
LINE
  8
2
 62
7
  6
CONTINUOUS
 10
214.841168
 20
156.329353
 11
214.932942
 21
155.913457
  0
LINE
  8
2
 62
7
  6
CONTINUOUS
 10
214.932942
 20
155.913457
 11
215.044845
 21
155.470412
  0
LINE
  8
2
 62
7
  6
CONTINUOUS
 10
215.044845
 20
155.470412
 11
215.173161
 21
155.015196
  0
LINE
  8
2
 62
7
  6
CONTINUOUS
 10
215.173161
 20
155.015196
 11
215.312376
 21
154.563898
  0
LINE
  8
2
 62
7
  6
CONTINUOUS
 10
215.312376
 20
154.563898
 11
215.455813
 21
154.132390
  0
LINE
  8
2
 62
7
  6
CONTINUOUS
 10
215.455813
 20
154.132390
 11
215.596363
 21
153.735083
  0
LINE
  8
2
 62
7
  6
CONTINUOUS
 10
215.596363
 20
153.735083
 11
215.727172
 21
153.383981
  0
LINE
  8
2
 62
7
  6
CONTINUOUS
 10
215.727172
 20
153.383981
 11
215.842173
 21
153.088186
  0
LINE
  8
2
 62
7
  6
CONTINUOUS
 10
215.842173
 20
153.088186
 11
215.936423
 21
152.853896
  0
LINE
  8
2
 62
7
  6
CONTINUOUS
 10
215.936423
 20
152.853896
 11
216.006212
 21
152.684826
  0
LINE
  8
2
 62
7
  6
CONTINUOUS
 10
216.006212
 20
152.684826
 11
216.049034
 21
152.582873
  0
LINE
  8
2
 62
7
  6
CONTINUOUS
 10
216.049034
 20
152.582873
 11
216.063461
 21
152.548823
  0
LINE
  8
2
 62
7
  6
CONTINUOUS
 10
216.063461
 20
152.548823
 11
216.077898
 21
152.514899
  0
LINE
  8
2
 62
7
  6
CONTINUOUS
 10
216.077898
 20
152.514899
 11
216.120856
 21
152.414796
  0
LINE
  8
2
 62
7
  6
CONTINUOUS
 10
216.120856
 20
152.414796
 11
216.191206
 21
152.253316
  0
LINE
  8
2
 62
7
  6
CONTINUOUS
 10
216.191206
 20
152.253316
 11
216.286851
 21
152.037861
  0
LINE
  8
2
 62
7
  6
CONTINUOUS
 10
216.286851
 20
152.037861
 11
216.404502
 21
151.777643
  0
LINE
  8
2
 62
7
  6
CONTINUOUS
 10
216.404502
 20
151.777643
 11
216.539524
 21
151.482801
  0
LINE
  8
2
 62
7
  6
CONTINUOUS
 10
216.539524
 20
151.482801
 11
216.685970
 21
151.163577
  0
LINE
  8
2
 62
7
  6
CONTINUOUS
 10
216.685970
 20
151.163577
 11
216.836854
 21
150.829689
  0
LINE
  8
2
 62
7
  6
CONTINUOUS
 10
216.836854
 20
150.829689
 11
216.984696
 21
150.489980
  0
LINE
  8
2
 62
7
  6
CONTINUOUS
 10
216.984696
 20
150.489980
 11
217.122266
 21
150.152352
  0
LINE
  8
2
 62
7
  6
CONTINUOUS
 10
217.122266
 20
150.152352
 11
217.243405
 21
149.823946
  0
LINE
  8
2
 62
7
  6
CONTINUOUS
 10
217.243405
 20
149.823946
 11
217.343777
 21
149.511440
  0
LINE
  8
2
 62
7
  6
CONTINUOUS
 10
217.343777
 20
149.511440
 11
217.421374
 21
149.221360
  0
LINE
  8
2
 62
7
  6
CONTINUOUS
 10
217.421374
 20
149.221360
 11
217.476674
 21
148.960265
  0
LINE
  8
2
 62
7
  6
CONTINUOUS
 10
217.476674
 20
148.960265
 11
217.512367
 21
148.734741
  0
LINE
  8
2
 62
7
  6
CONTINUOUS
 10
217.512367
 20
148.734741
 11
217.532700
 21
148.551166
  0
LINE
  8
2
 62
7
  6
CONTINUOUS
 10
217.532700
 20
148.551166
 11
217.542545
 21
148.415298
  0
LINE
  8
2
 62
7
  6
CONTINUOUS
 10
217.542545
 20
148.415298
 11
217.546362
 21
148.331763
  0
LINE
  8
2
 62
7
  6
CONTINUOUS
 10
217.546362
 20
148.331763
 11
217.547262
 21
148.303570
  0
LINE
  8
2
 62
7
  6
CONTINUOUS
 10
217.547262
 20
148.303570
 11
217.547968
 21
148.275328
  0
LINE
  8
2
 62
7
  6
CONTINUOUS
 10
217.547968
 20
148.275328
 11
217.548931
 21
148.191103
  0
LINE
  8
2
 62
7
  6
CONTINUOUS
 10
217.548931
 20
148.191103
 11
217.546945
 21
148.052505
  0
LINE
  8
2
 62
7
  6
CONTINUOUS
 10
217.546945
 20
148.052505
 11
217.537464
 21
147.862556
  0
LINE
  8
2
 62
7
  6
CONTINUOUS
 10
217.537464
 20
147.862556
 11
217.515618
 21
147.626059
  0
LINE
  8
2
 62
7
  6
CONTINUOUS
 10
217.515618
 20
147.626059
 11
217.477316
 21
147.349899
  0
LINE
  8
2
 62
7
  6
CONTINUOUS
 10
217.477316
 20
147.349899
 11
217.420187
 21
147.043121
  0
LINE
  8
2
 62
7
  6
CONTINUOUS
 10
217.420187
 20
147.043121
 11
217.344185
 21
146.716674
  0
LINE
  8
2
 62
7
  6
CONTINUOUS
 10
217.344185
 20
146.716674
 11
217.251732
 21
146.382805
  0
LINE
  8
2
 62
7
  6
CONTINUOUS
 10
217.251732
 20
146.382805
 11
217.147383
 21
146.054145
  0
LINE
  8
2
 62
7
  6
CONTINUOUS
 10
217.147383
 20
146.054145
 11
217.037117
 21
145.742632
  0
LINE
  8
2
 62
7
  6
CONTINUOUS
 10
217.037117
 20
145.742632
 11
216.927419
 21
145.458473
  0
LINE
  8
2
 62
7
  6
CONTINUOUS
 10
216.927419
 20
145.458473
 11
216.824361
 21
145.209333
  0
LINE
  8
2
 62
7
  6
CONTINUOUS
 10
216.824361
 20
145.209333
 11
216.732876
 21
144.999915
  0
LINE
  8
2
 62
7
  6
CONTINUOUS
 10
216.732876
 20
144.999915
 11
216.656357
 21
144.832032
  0
LINE
  8
2
 62
7
  6
CONTINUOUS
 10
216.656357
 20
144.832032
 11
216.596635
 21
144.705133
  0
LINE
  8
2
 62
7
  6
CONTINUOUS
 10
216.596635
 20
144.705133
 11
216.554286
 21
144.617189
  0
LINE
  8
2
 62
7
  6
CONTINUOUS
 10
216.554286
 20
144.617189
 11
216.529138
 21
144.565733
  0
LINE
  8
2
 62
7
  6
CONTINUOUS
 10
216.529138
 20
144.565733
 11
216.520814
 21
144.548823
  0
LINE
  8
2
 62
7
  6
CONTINUOUS
 10
216.520814
 20
144.548823
 11
216.512561
 21
144.532118
  0
LINE
  8
2
 62
7
  6
CONTINUOUS
 10
216.512561
 20
144.532118
 11
216.488443
 21
144.483650
  0
LINE
  8
2
 62
7
  6
CONTINUOUS
 10
216.488443
 20
144.483650
 11
216.450293
 21
144.408112
  0
LINE
  8
2
 62
7
  6
CONTINUOUS
 10
216.450293
 20
144.408112
 11
216.400886
 21
144.312535
  0
LINE
  8
2
 62
7
  6
CONTINUOUS
 10
216.400886
 20
144.312535
 11
216.343565
 21
144.205251
  0
LINE
  8
2
 62
7
  6
CONTINUOUS
 10
216.343565
 20
144.205251
 11
216.281829
 21
144.094735
  0
LINE
  8
2
 62
7
  6
CONTINUOUS
 10
216.281829
 20
144.094735
 11
216.218938
 21
143.988519
  0
LINE
  8
2
 62
7
  6
CONTINUOUS
 10
216.218938
 20
143.988519
 11
216.157609
 21
143.892370
  0
LINE
  8
2
 62
7
  6
CONTINUOUS
 10
216.157609
 20
143.892370
 11
216.099841
 21
143.809850
  0
LINE
  8
2
 62
7
  6
CONTINUOUS
 10
216.099841
 20
143.809850
 11
216.046888
 21
143.742287
  0
LINE
  8
2
 62
7
  6
CONTINUOUS
 10
216.046888
 20
143.742287
 11
215.999357
 21
143.689121
  0
LINE
  8
2
 62
7
  6
CONTINUOUS
 10
215.999357
 20
143.689121
 11
215.957392
 21
143.648500
  0
LINE
  8
2
 62
7
  6
CONTINUOUS
 10
215.957392
 20
143.648500
 11
215.920896
 21
143.617968
  0
LINE
  8
2
 62
7
  6
CONTINUOUS
 10
215.920896
 20
143.617968
 11
215.889724
 21
143.595089
  0
LINE
  8
2
 62
7
  6
CONTINUOUS
 10
215.889724
 20
143.595089
 11
215.863824
 21
143.577901
  0
LINE
  8
2
 62
7
  6
CONTINUOUS
 10
215.863824
 20
143.577901
 11
215.843290
 21
143.565114
  0
LINE
  8
2
 62
7
  6
CONTINUOUS
 10
215.843290
 20
143.565114
 11
215.828337
 21
143.556089
  0
LINE
  8
2
 62
7
  6
CONTINUOUS
 10
215.828337
 20
143.556089
 11
215.819224
 21
143.550649
  0
LINE
  8
2
 62
7
  6
CONTINUOUS
 10
215.819224
 20
143.550649
 11
215.816161
 21
143.548823
  0
LINE
  8
2
 62
7
  6
CONTINUOUS
 10
214.687111
 20
161.548822
 11
214.685053
 21
161.543883
  0
LINE
  8
2
 62
7
  6
CONTINUOUS
 10
214.685053
 20
161.543883
 11
214.678931
 21
161.529195
  0
LINE
  8
2
 62
7
  6
CONTINUOUS
 10
214.678931
 20
161.529195
 11
214.668869
 21
161.505115
  0
LINE
  8
2
 62
7
  6
CONTINUOUS
 10
214.668869
 20
161.505115
 11
214.654991
 21
161.472139
  0
LINE
  8
2
 62
7
  6
CONTINUOUS
 10
214.654991
 20
161.472139
 11
214.637321
 21
161.430795
  0
LINE
  8
2
 62
7
  6
CONTINUOUS
 10
214.637321
 20
161.430795
 11
214.615716
 21
161.381550
  0
LINE
  8
2
 62
7
  6
CONTINUOUS
 10
214.615716
 20
161.381550
 11
214.589838
 21
161.324772
  0
LINE
  8
2
 62
7
  6
CONTINUOUS
 10
214.589838
 20
161.324772
 11
214.559229
 21
161.260779
  0
LINE
  8
2
 62
7
  6
CONTINUOUS
 10
214.559229
 20
161.260779
 11
214.523449
 21
161.189976
  0
LINE
  8
2
 62
7
  6
CONTINUOUS
 10
214.523449
 20
161.189976
 11
214.482295
 21
161.113050
  0
LINE
  8
2
 62
7
  6
CONTINUOUS
 10
214.482295
 20
161.113050
 11
214.436032
 21
161.031196
  0
LINE
  8
2
 62
7
  6
CONTINUOUS
 10
214.436032
 20
161.031196
 11
214.385591
 21
160.946297
  0
LINE
  8
2
 62
7
  6
CONTINUOUS
 10
214.385591
 20
160.946297
 11
214.332685
 21
160.861025
  0
LINE
  8
2
 62
7
  6
CONTINUOUS
 10
214.332685
 20
160.861025
 11
214.279781
 21
160.778784
  0
LINE
  8
2
 62
7
  6
CONTINUOUS
 10
214.279781
 20
160.778784
 11
214.229935
 21
160.703520
  0
LINE
  8
2
 62
7
  6
CONTINUOUS
 10
214.229935
 20
160.703520
 11
214.186490
 21
160.639374
  0
LINE
  8
2
 62
7
  6
CONTINUOUS
 10
214.186490
 20
160.639374
 11
214.152674
 21
160.590251
  0
LINE
  8
2
 62
7
  6
CONTINUOUS
 10
214.152674
 20
160.590251
 11
214.131185
 21
160.559364
  0
LINE
  8
2
 62
7
  6
CONTINUOUS
 10
214.131185
 20
160.559364
 11
214.123813
 21
160.548822
  0
LINE
  8
2
 62
7
  6
CONTINUOUS
 10
214.123813
 20
160.548822
 11
214.116368
 21
160.538204
  0
LINE
  8
2
 62
7
  6
CONTINUOUS
 10
214.116368
 20
160.538204
 11
214.093824
 21
160.506177
  0
LINE
  8
2
 62
7
  6
CONTINUOUS
 10
214.093824
 20
160.506177
 11
214.055694
 21
160.452239
  0
LINE
  8
2
 62
7
  6
CONTINUOUS
 10
214.055694
 20
160.452239
 11
214.001620
 21
160.375606
  0
LINE
  8
2
 62
7
  6
CONTINUOUS
 10
214.001620
 20
160.375606
 11
213.931906
 21
160.275320
  0
LINE
  8
2
 62
7
  6
CONTINUOUS
 10
213.931906
 20
160.275320
 11
213.848026
 21
160.150438
  0
LINE
  8
2
 62
7
  6
CONTINUOUS
 10
213.848026
 20
160.150438
 11
213.752944
 21
160.000323
  0
LINE
  8
2
 62
7
  6
CONTINUOUS
 10
213.752944
 20
160.000323
 11
213.651118
 21
159.825035
  0
LINE
  8
2
 62
7
  6
CONTINUOUS
 10
213.651118
 20
159.825035
 11
213.548144
 21
159.625776
  0
LINE
  8
2
 62
7
  6
CONTINUOUS
 10
213.548144
 20
159.625776
 11
213.450081
 21
159.405341
  0
LINE
  8
2
 62
7
  6
CONTINUOUS
 10
213.450081
 20
159.405341
 11
213.362588
 21
159.168474
  0
LINE
  8
2
 62
7
  6
CONTINUOUS
 10
213.362588
 20
159.168474
 11
213.290045
 21
158.922046
  0
LINE
  8
2
 62
7
  6
CONTINUOUS
 10
213.290045
 20
158.922046
 11
213.234875
 21
158.674969
  0
LINE
  8
2
 62
7
  6
CONTINUOUS
 10
213.234875
 20
158.674969
 11
213.197212
 21
158.437809
  0
LINE
  8
2
 62
7
  6
CONTINUOUS
 10
213.197212
 20
158.437809
 11
213.175011
 21
158.222097
  0
LINE
  8
2
 62
7
  6
CONTINUOUS
 10
213.175011
 20
158.222097
 11
213.164598
 21
158.039398
  0
LINE
  8
2
 62
7
  6
CONTINUOUS
 10
213.164598
 20
158.039398
 11
213.161544
 21
157.900247
  0
LINE
  8
2
 62
7
  6
CONTINUOUS
 10
213.161544
 20
157.900247
 11
213.161690
 21
157.813094
  0
LINE
  8
2
 62
7
  6
CONTINUOUS
 10
213.161690
 20
157.813094
 11
213.162093
 21
157.783412
  0
LINE
  8
2
 62
7
  6
CONTINUOUS
 10
213.162093
 20
157.783412
 11
213.162676
 21
157.753546
  0
LINE
  8
2
 62
7
  6
CONTINUOUS
 10
213.162676
 20
157.753546
 11
213.165464
 21
157.663690
  0
LINE
  8
2
 62
7
  6
CONTINUOUS
 10
213.165464
 20
157.663690
 11
213.173369
 21
157.513320
  0
LINE
  8
2
 62
7
  6
CONTINUOUS
 10
213.173369
 20
157.513320
 11
213.190590
 21
157.302307
  0
LINE
  8
2
 62
7
  6
CONTINUOUS
 10
213.190590
 20
157.302307
 11
213.221765
 21
157.031843
  0
LINE
  8
2
 62
7
  6
CONTINUOUS
 10
213.221765
 20
157.031843
 11
213.271035
 21
156.705381
  0
LINE
  8
2
 62
7
  6
CONTINUOUS
 10
213.271035
 20
156.705381
 11
213.341168
 21
156.329353
  0
LINE
  8
2
 62
7
  6
CONTINUOUS
 10
213.341168
 20
156.329353
 11
213.432942
 21
155.913457
  0
LINE
  8
2
 62
7
  6
CONTINUOUS
 10
213.432942
 20
155.913457
 11
213.544845
 21
155.470412
  0
LINE
  8
2
 62
7
  6
CONTINUOUS
 10
213.544845
 20
155.470412
 11
213.673161
 21
155.015196
  0
LINE
  8
2
 62
7
  6
CONTINUOUS
 10
213.673161
 20
155.015196
 11
213.812376
 21
154.563898
  0
LINE
  8
2
 62
7
  6
CONTINUOUS
 10
213.812376
 20
154.563898
 11
213.955813
 21
154.132390
  0
LINE
  8
2
 62
7
  6
CONTINUOUS
 10
213.955813
 20
154.132390
 11
214.096363
 21
153.735083
  0
LINE
  8
2
 62
7
  6
CONTINUOUS
 10
214.096363
 20
153.735083
 11
214.227172
 21
153.383981
  0
LINE
  8
2
 62
7
  6
CONTINUOUS
 10
214.227172
 20
153.383981
 11
214.342173
 21
153.088186
  0
LINE
  8
2
 62
7
  6
CONTINUOUS
 10
214.342173
 20
153.088186
 11
214.436423
 21
152.853896
  0
LINE
  8
2
 62
7
  6
CONTINUOUS
 10
214.436423
 20
152.853896
 11
214.506212
 21
152.684826
  0
LINE
  8
2
 62
7
  6
CONTINUOUS
 10
214.506212
 20
152.684826
 11
214.549034
 21
152.582873
  0
LINE
  8
2
 62
7
  6
CONTINUOUS
 10
214.549034
 20
152.582873
 11
214.563461
 21
152.548823
  0
LINE
  8
2
 62
7
  6
CONTINUOUS
 10
214.563461
 20
152.548823
 11
214.577898
 21
152.514899
  0
LINE
  8
2
 62
7
  6
CONTINUOUS
 10
214.577898
 20
152.514899
 11
214.620856
 21
152.414796
  0
LINE
  8
2
 62
7
  6
CONTINUOUS
 10
214.620856
 20
152.414796
 11
214.691206
 21
152.253316
  0
LINE
  8
2
 62
7
  6
CONTINUOUS
 10
214.691206
 20
152.253316
 11
214.786851
 21
152.037861
  0
LINE
  8
2
 62
7
  6
CONTINUOUS
 10
214.786851
 20
152.037861
 11
214.904502
 21
151.777643
  0
LINE
  8
2
 62
7
  6
CONTINUOUS
 10
214.904502
 20
151.777643
 11
215.039524
 21
151.482801
  0
LINE
  8
2
 62
7
  6
CONTINUOUS
 10
215.039524
 20
151.482801
 11
215.185970
 21
151.163577
  0
LINE
  8
2
 62
7
  6
CONTINUOUS
 10
215.185970
 20
151.163577
 11
215.336854
 21
150.829689
  0
LINE
  8
2
 62
7
  6
CONTINUOUS
 10
215.336854
 20
150.829689
 11
215.484696
 21
150.489980
  0
LINE
  8
2
 62
7
  6
CONTINUOUS
 10
215.484696
 20
150.489980
 11
215.622266
 21
150.152352
  0
LINE
  8
2
 62
7
  6
CONTINUOUS
 10
215.622266
 20
150.152352
 11
215.743405
 21
149.823946
  0
LINE
  8
2
 62
7
  6
CONTINUOUS
 10
215.743405
 20
149.823946
 11
215.843777
 21
149.511440
  0
LINE
  8
2
 62
7
  6
CONTINUOUS
 10
215.843777
 20
149.511440
 11
215.921374
 21
149.221360
  0
LINE
  8
2
 62
7
  6
CONTINUOUS
 10
215.921374
 20
149.221360
 11
215.976674
 21
148.960265
  0
LINE
  8
2
 62
7
  6
CONTINUOUS
 10
215.976674
 20
148.960265
 11
216.012367
 21
148.734741
  0
LINE
  8
2
 62
7
  6
CONTINUOUS
 10
216.012367
 20
148.734741
 11
216.032700
 21
148.551166
  0
LINE
  8
2
 62
7
  6
CONTINUOUS
 10
216.032700
 20
148.551166
 11
216.042545
 21
148.415298
  0
LINE
  8
2
 62
7
  6
CONTINUOUS
 10
216.042545
 20
148.415298
 11
216.046362
 21
148.331763
  0
LINE
  8
2
 62
7
  6
CONTINUOUS
 10
216.046362
 20
148.331763
 11
216.047262
 21
148.303570
  0
LINE
  8
2
 62
7
  6
CONTINUOUS
 10
216.047262
 20
148.303570
 11
216.047968
 21
148.275328
  0
LINE
  8
2
 62
7
  6
CONTINUOUS
 10
216.047968
 20
148.275328
 11
216.048931
 21
148.191103
  0
LINE
  8
2
 62
7
  6
CONTINUOUS
 10
216.048931
 20
148.191103
 11
216.046945
 21
148.052505
  0
LINE
  8
2
 62
7
  6
CONTINUOUS
 10
216.046945
 20
148.052505
 11
216.037464
 21
147.862556
  0
LINE
  8
2
 62
7
  6
CONTINUOUS
 10
216.037464
 20
147.862556
 11
216.015618
 21
147.626059
  0
LINE
  8
2
 62
7
  6
CONTINUOUS
 10
216.015618
 20
147.626059
 11
215.977316
 21
147.349899
  0
LINE
  8
2
 62
7
  6
CONTINUOUS
 10
215.977316
 20
147.349899
 11
215.920187
 21
147.043121
  0
LINE
  8
2
 62
7
  6
CONTINUOUS
 10
215.920187
 20
147.043121
 11
215.844185
 21
146.716674
  0
LINE
  8
2
 62
7
  6
CONTINUOUS
 10
215.844185
 20
146.716674
 11
215.751732
 21
146.382805
  0
LINE
  8
2
 62
7
  6
CONTINUOUS
 10
215.751732
 20
146.382805
 11
215.647383
 21
146.054145
  0
LINE
  8
2
 62
7
  6
CONTINUOUS
 10
215.647383
 20
146.054145
 11
215.537117
 21
145.742632
  0
LINE
  8
2
 62
7
  6
CONTINUOUS
 10
215.537117
 20
145.742632
 11
215.427419
 21
145.458473
  0
LINE
  8
2
 62
7
  6
CONTINUOUS
 10
215.427419
 20
145.458473
 11
215.324361
 21
145.209333
  0
LINE
  8
2
 62
7
  6
CONTINUOUS
 10
215.324361
 20
145.209333
 11
215.232876
 21
144.999915
  0
LINE
  8
2
 62
7
  6
CONTINUOUS
 10
215.232876
 20
144.999915
 11
215.156357
 21
144.832032
  0
LINE
  8
2
 62
7
  6
CONTINUOUS
 10
215.156357
 20
144.832032
 11
215.096635
 21
144.705133
  0
LINE
  8
2
 62
7
  6
CONTINUOUS
 10
215.096635
 20
144.705133
 11
215.054286
 21
144.617189
  0
LINE
  8
2
 62
7
  6
CONTINUOUS
 10
215.054286
 20
144.617189
 11
215.029138
 21
144.565733
  0
LINE
  8
2
 62
7
  6
CONTINUOUS
 10
215.029138
 20
144.565733
 11
215.020814
 21
144.548823
  0
LINE
  8
2
 62
7
  6
CONTINUOUS
 10
215.020814
 20
144.548823
 11
215.012561
 21
144.532118
  0
LINE
  8
2
 62
7
  6
CONTINUOUS
 10
215.012561
 20
144.532118
 11
214.988443
 21
144.483650
  0
LINE
  8
2
 62
7
  6
CONTINUOUS
 10
214.988443
 20
144.483650
 11
214.950293
 21
144.408112
  0
LINE
  8
2
 62
7
  6
CONTINUOUS
 10
214.950293
 20
144.408112
 11
214.900886
 21
144.312535
  0
LINE
  8
2
 62
7
  6
CONTINUOUS
 10
214.900886
 20
144.312535
 11
214.843565
 21
144.205251
  0
LINE
  8
2
 62
7
  6
CONTINUOUS
 10
214.843565
 20
144.205251
 11
214.781829
 21
144.094735
  0
LINE
  8
2
 62
7
  6
CONTINUOUS
 10
214.781829
 20
144.094735
 11
214.718938
 21
143.988519
  0
LINE
  8
2
 62
7
  6
CONTINUOUS
 10
214.718938
 20
143.988519
 11
214.657609
 21
143.892370
  0
LINE
  8
2
 62
7
  6
CONTINUOUS
 10
214.657609
 20
143.892370
 11
214.599841
 21
143.809850
  0
LINE
  8
2
 62
7
  6
CONTINUOUS
 10
214.599841
 20
143.809850
 11
214.546888
 21
143.742287
  0
LINE
  8
2
 62
7
  6
CONTINUOUS
 10
214.546888
 20
143.742287
 11
214.499357
 21
143.689121
  0
LINE
  8
2
 62
7
  6
CONTINUOUS
 10
214.499357
 20
143.689121
 11
214.457392
 21
143.648500
  0
LINE
  8
2
 62
7
  6
CONTINUOUS
 10
214.457392
 20
143.648500
 11
214.420896
 21
143.617968
  0
LINE
  8
2
 62
7
  6
CONTINUOUS
 10
214.420896
 20
143.617968
 11
214.389724
 21
143.595089
  0
LINE
  8
2
 62
7
  6
CONTINUOUS
 10
214.389724
 20
143.595089
 11
214.363824
 21
143.577901
  0
LINE
  8
2
 62
7
  6
CONTINUOUS
 10
214.363824
 20
143.577901
 11
214.343290
 21
143.565114
  0
LINE
  8
2
 62
7
  6
CONTINUOUS
 10
214.343290
 20
143.565114
 11
214.328337
 21
143.556089
  0
LINE
  8
2
 62
7
  6
CONTINUOUS
 10
214.328337
 20
143.556089
 11
214.319224
 21
143.550649
  0
LINE
  8
2
 62
7
  6
CONTINUOUS
 10
214.319224
 20
143.550649
 11
214.316161
 21
143.548823
  0
LINE
  8
1
 62
7
  6
CONTINUOUS
 10
216.187111
 20
161.548822
 11
232.147778
 21
161.548822
  0
LINE
  8
1
 62
7
  6
CONTINUOUS
 10
232.505227
 20
143.548823
 11
215.816161
 21
143.548823
  0
LINE
  8
1
 62
7
  6
CONTINUOUS
 10
214.316161
 20
143.548823
 11
205.295806
 21
143.548823
  0
LINE
  8
2
 62
7
  6
CONTINUOUS
 10
204.081017
 20
117.370223
 11
205.872525
 21
124.056224
  0
LINE
  8
2
 62
7
  6
CONTINUOUS
 10
204.081017
 20
117.370223
 11
202.289509
 21
124.056224
  0
LINE
  8
2
 62
7
  6
CONTINUOUS
 10
204.081017
 20
127.548823
 11
204.081017
 21
117.370223
  0
LINE
  8
2
 62
7
  6
CONTINUOUS
 10
225.341560
 20
127.548823
 11
204.081017
 21
127.548823
  0
LINE
  8
1
 62
7
  6
CONTINUOUS
 10
172.295807
 20
128.048823
 11
194.250254
 21
128.048823
  0
LINE
  8
4
 62
7
  6
CONTINUOUS
 10
175.635754
 20
126.690244
 11
175.645805
 21
126.700295
  0
LINE
  8
4
 62
7
  6
CONTINUOUS
 10
175.576722
 20
126.914054
 11
175.645805
 21
126.983137
  0
LINE
  8
4
 62
7
  6
CONTINUOUS
 10
175.480046
 20
127.100222
 11
175.645805
 21
127.265980
  0
LINE
  8
4
 62
7
  6
CONTINUOUS
 10
175.352912
 20
127.255929
 11
175.645805
 21
127.548823
  0
LINE
  8
4
 62
7
  6
CONTINUOUS
 10
175.197204
 20
127.383064
 11
175.362962
 21
127.548823
  0
LINE
  8
4
 62
7
  6
CONTINUOUS
 10
175.011036
 20
127.479739
 11
175.080119
 21
127.548823
  0
LINE
  8
4
 62
7
  6
CONTINUOUS
 10
174.787226
 20
127.538772
 11
174.797277
 21
127.548823
  0
LINE
  8
4
 62
7
  6
CONTINUOUS
 10
190.955858
 20
126.690244
 11
190.945808
 21
126.700295
  0
LINE
  8
4
 62
7
  6
CONTINUOUS
 10
191.014891
 20
126.914054
 11
190.945808
 21
126.983137
  0
LINE
  8
4
 62
7
  6
CONTINUOUS
 10
191.111566
 20
127.100222
 11
190.945808
 21
127.265980
  0
LINE
  8
4
 62
7
  6
CONTINUOUS
 10
191.238701
 20
127.255929
 11
190.945808
 21
127.548823
  0
LINE
  8
4
 62
7
  6
CONTINUOUS
 10
191.394409
 20
127.383064
 11
191.228650
 21
127.548823
  0
LINE
  8
4
 62
7
  6
CONTINUOUS
 10
191.580576
 20
127.479739
 11
191.511493
 21
127.548823
  0
LINE
  8
4
 62
7
  6
CONTINUOUS
 10
191.804386
 20
127.538772
 11
191.794336
 21
127.548823
  0
LINE
  8
1
 62
7
  6
CONTINUOUS
 10
167.295806
 20
165.548822
 11
167.295806
 21
176.548824
  0
LINE
  8
1
 62
7
  6
CONTINUOUS
 10
199.295807
 20
165.474921
 11
199.295807
 21
176.548824
  0
ARC
  8
1
 62
7
  6
CONTINUOUS
 10
200.787501
 20
188.201174
 40
0.861052
 50
152.977311
 51
-130.745266
  0
LINE
  8
4
 62
7
  6
CONTINUOUS
 10
200.161108
 20
187.548824
 11
200.191762
 21
187.579478
  0
LINE
  8
4
 62
7
  6
CONTINUOUS
 10
199.878265
 20
187.548824
 11
200.063904
 21
187.734463
  0
LINE
  8
4
 62
7
  6
CONTINUOUS
 10
199.595422
 20
187.548824
 11
199.971854
 21
187.925255
  0
LINE
  8
4
 62
7
  6
CONTINUOUS
 10
199.312579
 20
187.548824
 11
199.927272
 21
188.163517
  0
LINE
  8
4
 62
7
  6
CONTINUOUS
 10
199.029737
 20
187.548824
 11
199.979410
 21
188.498498
  0
LINE
  8
4
 62
7
  6
CONTINUOUS
 10
198.746894
 20
187.548824
 11
199.040449
 21
187.842379
  0
LINE
  8
4
 62
7
  6
CONTINUOUS
 10
198.464051
 20
187.548824
 11
198.583181
 21
187.667953
  0
LINE
  8
4
 62
7
  6
CONTINUOUS
 10
198.181209
 20
187.548824
 11
198.218648
 21
187.586263
  0
LINE
  8
4
 62
7
  6
CONTINUOUS
 10
197.898366
 20
187.548824
 11
197.902439
 21
187.552897
  0
ARC
  8
1
 62
7
  6
CONTINUOUS
 10
165.804112
 20
188.201174
 40
0.861052
 50
-49.254734
 51
27.022689
  0
LINE
  8
4
 62
7
  6
CONTINUOUS
 10
166.430505
 20
187.548824
 11
166.399851
 21
187.579478
  0
LINE
  8
4
 62
7
  6
CONTINUOUS
 10
166.713348
 20
187.548824
 11
166.527708
 21
187.734463
  0
LINE
  8
4
 62
7
  6
CONTINUOUS
 10
166.996190
 20
187.548824
 11
166.619759
 21
187.925255
  0
LINE
  8
4
 62
7
  6
CONTINUOUS
 10
167.279033
 20
187.548824
 11
166.664340
 21
188.163517
  0
LINE
  8
4
 62
7
  6
CONTINUOUS
 10
167.561876
 20
187.548824
 11
166.612202
 21
188.498498
  0
LINE
  8
4
 62
7
  6
CONTINUOUS
 10
167.844718
 20
187.548824
 11
167.551163
 21
187.842379
  0
LINE
  8
4
 62
7
  6
CONTINUOUS
 10
168.127561
 20
187.548824
 11
168.008431
 21
187.667953
  0
LINE
  8
4
 62
7
  6
CONTINUOUS
 10
168.410404
 20
187.548824
 11
168.372964
 21
187.586263
  0
LINE
  8
4
 62
7
  6
CONTINUOUS
 10
168.693247
 20
187.548824
 11
168.689174
 21
187.552897
  0
LINE
  8
1
 62
7
  6
CONTINUOUS
 10
205.295806
 20
164.048822
 11
205.295806
 21
139.548822
  0
LINE
  8
1
 62
7
  6
CONTINUOUS
 10
205.295806
 20
161.548822
 11
214.687111
 21
161.548822
  0
ARC
  8
1
 62
7
  6
CONTINUOUS
 10
206.295806
 20
162.548822
 40
1.000000
 50
-180.000000
 51
-90.000000
  0
LINE
  8
4
 62
7
  6
CONTINUOUS
 10
206.144335
 20
161.548822
 11
206.154385
 21
161.558873
  0
LINE
  8
4
 62
7
  6
CONTINUOUS
 10
205.861492
 20
161.548822
 11
205.930575
 21
161.617905
  0
LINE
  8
4
 62
7
  6
CONTINUOUS
 10
205.578649
 20
161.548822
 11
205.744407
 21
161.714581
  0
LINE
  8
4
 62
7
  6
CONTINUOUS
 10
205.295806
 20
161.548822
 11
205.588700
 21
161.841715
  0
LINE
  8
4
 62
7
  6
CONTINUOUS
 10
205.295806
 20
161.831665
 11
205.461565
 21
161.997423
  0
LINE
  8
4
 62
7
  6
CONTINUOUS
 10
205.295806
 20
162.114508
 11
205.364890
 21
162.183591
  0
LINE
  8
4
 62
7
  6
CONTINUOUS
 10
205.295806
 20
162.397350
 11
205.305857
 21
162.407401
  0
ARC
  8
1
 62
7
  6
CONTINUOUS
 10
206.295806
 20
142.548823
 40
1.000000
 50
90.000000
 51
180.000000
  0
LINE
  8
4
 62
7
  6
CONTINUOUS
 10
206.144335
 20
143.548823
 11
206.154385
 21
143.538773
  0
LINE
  8
4
 62
7
  6
CONTINUOUS
 10
205.861492
 20
143.548823
 11
205.930575
 21
143.479740
  0
LINE
  8
4
 62
7
  6
CONTINUOUS
 10
205.578649
 20
143.548823
 11
205.744407
 21
143.383065
  0
LINE
  8
4
 62
7
  6
CONTINUOUS
 10
205.295806
 20
143.548823
 11
205.588700
 21
143.255930
  0
LINE
  8
4
 62
7
  6
CONTINUOUS
 10
205.295806
 20
143.265981
 11
205.461565
 21
143.100222
  0
LINE
  8
4
 62
7
  6
CONTINUOUS
 10
205.295806
 20
142.983138
 11
205.364890
 21
142.914055
  0
LINE
  8
4
 62
7
  6
CONTINUOUS
 10
205.295806
 20
142.700295
 11
205.305857
 21
142.690245
  0
ARC
  8
1
 62
7
  6
CONTINUOUS
 10
175.495806
 20
242.535233
 40
9.800000
 50
90.000000
 51
180.000000
  0
ARC
  8
1
 62
7
  6
CONTINUOUS
 10
191.095806
 20
242.535233
 40
9.800000
 50
0.000000
 51
90.000000
  0
LINE
  8
1
 62
7
  6
CONTINUOUS
 10
190.742216
 20
252.335233
 11
191.095806
 21
252.335233
  0
LINE
  8
1
 62
7
  6
CONTINUOUS
 10
190.742216
 20
252.335233
 11
189.263739
 21
253.185233
  0
LINE
  8
1
 62
7
  6
CONTINUOUS
 10
175.849397
 20
252.335233
 11
177.318048
 21
253.185233
  0
LINE
  8
1
 62
7
  6
CONTINUOUS
 10
180.495806
 20
253.550934
 11
180.495806
 21
253.185233
  0
LINE
  8
1
 62
7
  6
CONTINUOUS
 10
175.495806
 20
252.335233
 11
191.095806
 21
252.335233
  0
LINE
  8
1
 62
7
  6
CONTINUOUS
 10
189.263739
 20
253.185233
 11
177.318048
 21
253.185233
  0
LINE
  8
1
 62
7
  6
CONTINUOUS
 10
180.495806
 20
253.550934
 11
186.095807
 21
253.550934
  0
LINE
  8
1
 62
7
  6
CONTINUOUS
 10
186.095807
 20
253.185233
 11
186.095807
 21
253.550934
  0
ARC
  8
1
 62
7
  6
CONTINUOUS
 10
183.280584
 20
248.637691
 40
5.647561
 50
60.455858
 51
119.544142
  0
ARC
  8
1
 62
7
  6
CONTINUOUS
 10
76.939845
 20
242.535233
 40
9.800000
 50
90.000000
 51
180.000000
  0
ARC
  8
1
 62
7
  6
CONTINUOUS
 10
92.539845
 20
242.535233
 40
9.800000
 50
0.000000
 51
90.000000
  0
LINE
  8
1
 62
7
  6
CONTINUOUS
 10
92.186254
 20
252.335233
 11
92.539845
 21
252.335233
  0
LINE
  8
1
 62
7
  6
CONTINUOUS
 10
92.186254
 20
252.335233
 11
90.707777
 21
253.185233
  0
LINE
  8
1
 62
7
  6
CONTINUOUS
 10
77.293435
 20
252.335233
 11
78.762086
 21
253.185233
  0
LINE
  8
1
 62
7
  6
CONTINUOUS
 10
81.939844
 20
253.550934
 11
81.939844
 21
253.185233
  0
LINE
  8
1
 62
7
  6
CONTINUOUS
 10
76.939845
 20
252.335233
 11
92.539845
 21
252.335233
  0
LINE
  8
1
 62
7
  6
CONTINUOUS
 10
90.707777
 20
253.185233
 11
78.762086
 21
253.185233
  0
LINE
  8
1
 62
7
  6
CONTINUOUS
 10
81.939844
 20
253.550934
 11
87.539845
 21
253.550934
  0
LINE
  8
1
 62
7
  6
CONTINUOUS
 10
87.539845
 20
253.185233
 11
87.539845
 21
253.550934
  0
ARC
  8
1
 62
7
  6
CONTINUOUS
 10
84.724622
 20
248.637691
 40
5.647561
 50
60.455858
 51
119.544142
  0
LINE
  8
3
 62
7
  6
CONTINUOUS
 10
51.439973
 20
268.734523
 11
53.371824
 21
269.252161
  0
LINE
  8
3
 62
7
  6
CONTINUOUS
 10
51.439973
 20
268.734523
 11
53.371824
 21
268.216885
  0
LINE
  8
3
 62
7
  6
CONTINUOUS
 10
118.039973
 20
268.734523
 11
116.108122
 21
268.216885
  0
LINE
  8
3
 62
7
  6
CONTINUOUS
 10
118.039973
 20
268.734523
 11
116.108122
 21
269.252161
  0
LINE
  8
3
 62
7
  6
CONTINUOUS
 10
51.439973
 20
269.734523
 11
51.439973
 21
223.884784
  0
LINE
  8
3
 62
7
  6
CONTINUOUS
 10
118.039973
 20
269.734523
 11
118.039973
 21
223.884784
  0
LINE
  8
3
 62
7
  6
CONTINUOUS
 10
51.439973
 20
268.734523
 11
118.039973
 21
268.734523
  0
LINE
  8
3
 62
7
  6
CONTINUOUS
 10
67.139844
 20
261.734523
 11
69.071696
 21
262.252161
  0
LINE
  8
3
 62
7
  6
CONTINUOUS
 10
67.139844
 20
261.734523
 11
69.071696
 21
261.216885
  0
LINE
  8
3
 62
7
  6
CONTINUOUS
 10
102.339845
 20
261.734523
 11
100.407993
 21
261.216885
  0
LINE
  8
3
 62
7
  6
CONTINUOUS
 10
102.339845
 20
261.734523
 11
100.407993
 21
262.252161
  0
LINE
  8
3
 62
7
  6
CONTINUOUS
 10
67.139844
 20
262.734523
 11
67.139844
 21
239.416338
  0
LINE
  8
3
 62
7
  6
CONTINUOUS
 10
102.339845
 20
262.734523
 11
102.339845
 21
239.305406
  0
LINE
  8
3
 62
7
  6
CONTINUOUS
 10
67.139844
 20
261.734523
 11
102.339845
 21
261.734523
  0
TEXT
  8
3
 62
7
  6
CONTINUOUS
 10
44.439844
 20
152.267880
 40
4.000000
 41
1.000000
  1
220±5
  7
KANJI
 50
90.000000
 51
0.000000
  0
LINE
  8
3
 62
7
  6
CONTINUOUS
 10
44.439844
 20
62.250593
 11
43.922206
 21
64.182444
  0
LINE
  8
3
 62
7
  6
CONTINUOUS
 10
44.439844
 20
62.250593
 11
44.957483
 21
64.182444
  0
LINE
  8
3
 62
7
  6
CONTINUOUS
 10
44.439844
 20
254.285167
 11
44.957483
 21
252.353315
  0
LINE
  8
3
 62
7
  6
CONTINUOUS
 10
44.439844
 20
254.285167
 11
43.922206
 21
252.353315
  0
LINE
  8
3
 62
7
  6
CONTINUOUS
 10
43.439844
 20
62.250593
 11
76.589843
 21
62.250593
  0
LINE
  8
3
 62
7
  6
CONTINUOUS
 10
43.439844
 20
254.285167
 11
84.239845
 21
254.285167
  0
LINE
  8
3
 62
7
  6
CONTINUOUS
 10
44.439844
 20
62.250593
 11
44.439844
 21
254.285167
  0
LINE
  8
3
 62
7
  6
CONTINUOUS
 10
62.739844
 20
115.548823
 11
62.739844
 21
144.012782
  0
LINE
  8
3
 62
7
  6
CONTINUOUS
 10
106.739845
 20
115.548823
 11
106.739845
 21
144.012782
  0
LINE
  8
3
 62
7
  6
CONTINUOUS
 10
176.845806
 20
52.250594
 11
174.913954
 21
51.732956
  0
LINE
  8
3
 62
7
  6
CONTINUOUS
 10
176.845806
 20
52.250594
 11
174.913954
 21
52.768232
  0
LINE
  8
3
 62
7
  6
CONTINUOUS
 10
189.745807
 20
52.250594
 11
191.677658
 21
52.768232
  0
LINE
  8
3
 62
7
  6
CONTINUOUS
 10
189.745807
 20
52.250594
 11
191.677658
 21
51.732956
  0
LINE
  8
3
 62
7
  6
CONTINUOUS
 10
176.845806
 20
51.250594
 11
176.845806
 21
61.750593
  0
LINE
  8
3
 62
7
  6
CONTINUOUS
 10
189.745807
 20
51.250594
 11
189.745807
 21
61.750594
  0
LINE
  8
3
 62
7
  6
CONTINUOUS
 10
172.845806
 20
52.250594
 11
209.123807
 21
52.250594
  0
TEXT
  8
3
 62
7
  6
CONTINUOUS
 10
219.400516
 20
45.250594
 40
4.000000
 41
0.500000
  1
95
  7
KANJI
 50
0.000000
 51
0.000000
  0
LINE
  8
3
 62
7
  6
CONTINUOUS
 10
183.295806
 20
45.250594
 11
185.227658
 21
45.768232
  0
LINE
  8
3
 62
7
  6
CONTINUOUS
 10
183.295806
 20
45.250594
 11
185.227658
 21
44.732956
  0
LINE
  8
3
 62
7
  6
CONTINUOUS
 10
259.505227
 20
45.250594
 11
257.573375
 21
44.732956
  0
LINE
  8
3
 62
7
  6
CONTINUOUS
 10
259.505227
 20
45.250594
 11
257.573375
 21
45.768232
  0
LINE
  8
3
 62
7
  6
CONTINUOUS
 10
183.295806
 20
44.250594
 11
183.295806
 21
55.510162
  0
LINE
  8
3
 62
7
  6
CONTINUOUS
 10
259.505227
 20
44.250594
 11
259.505227
 21
141.473823
  0
LINE
  8
3
 62
7
  6
CONTINUOUS
 10
183.295806
 20
45.250594
 11
259.505227
 21
45.250594
  0
TEXT
  8
3
 62
7
  6
CONTINUOUS
 10
276.505227
 20
104.399708
 40
4.000000
 41
0.500000
  1
118
  7
KANJI
 50
90.000000
 51
0.000000
  0
LINE
  8
3
 62
7
  6
CONTINUOUS
 10
276.505227
 20
62.250593
 11
275.987589
 21
64.182444
  0
LINE
  8
3
 62
7
  6
CONTINUOUS
 10
276.505227
 20
62.250593
 11
277.022865
 21
64.182444
  0
LINE
  8
3
 62
7
  6
CONTINUOUS
 10
276.505227
 20
152.548823
 11
277.022865
 21
150.616971
  0
LINE
  8
3
 62
7
  6
CONTINUOUS
 10
276.505227
 20
152.548823
 11
275.987589
 21
150.616971
  0
LINE
  8
3
 62
7
  6
CONTINUOUS
 10
277.505227
 20
62.250593
 11
191.445808
 21
62.250593
  0
LINE
  8
3
 62
7
  6
CONTINUOUS
 10
277.505227
 20
152.548823
 11
269.552440
 21
152.548823
  0
LINE
  8
3
 62
7
  6
CONTINUOUS
 10
276.505227
 20
62.250593
 11
276.505227
 21
152.548823
  0
TEXT
  8
3
 62
7
  6
CONTINUOUS
 10
252.505227
 20
132.200719
 40
4.000000
 41
0.500000
  1
10
  7
KANJI
 50
0.000000
 51
0.000000
  0
LINE
  8
3
 62
7
  6
CONTINUOUS
 10
249.505227
 20
132.200719
 11
247.573376
 21
131.683081
  0
LINE
  8
3
 62
7
  6
CONTINUOUS
 10
249.505227
 20
132.200719
 11
247.573376
 21
132.718357
  0
LINE
  8
3
 62
7
  6
CONTINUOUS
 10
259.505227
 20
132.200719
 11
261.437078
 21
132.718357
  0
LINE
  8
3
 62
7
  6
CONTINUOUS
 10
259.505227
 20
132.200719
 11
261.437078
 21
131.683081
  0
LINE
  8
3
 62
7
  6
CONTINUOUS
 10
249.505227
 20
131.700719
 11
249.505227
 21
143.492522
  0
LINE
  8
3
 62
7
  6
CONTINUOUS
 10
259.505227
 20
131.700719
 11
259.505227
 21
140.973823
  0
LINE
  8
3
 62
7
  6
CONTINUOUS
 10
246.505227
 20
132.200719
 11
262.505227
 21
132.200719
  0
LINE
  8
3
 62
7
  6
CONTINUOUS
 10
269.505227
 20
142.973823
 11
270.022865
 21
141.041972
  0
LINE
  8
3
 62
7
  6
CONTINUOUS
 10
269.505227
 20
142.973823
 11
268.987589
 21
141.041972
  0
LINE
  8
3
 62
7
  6
CONTINUOUS
 10
269.505227
 20
162.123822
 11
268.987589
 21
164.055674
  0
LINE
  8
3
 62
7
  6
CONTINUOUS
 10
269.505227
 20
162.123822
 11
270.022865
 21
164.055674
  0
LINE
  8
3
 62
7
  6
CONTINUOUS
 10
270.505227
 20
142.973823
 11
259.805226
 21
142.973823
  0
LINE
  8
3
 62
7
  6
CONTINUOUS
 10
270.505227
 20
162.123822
 11
259.805226
 21
162.123822
  0
LINE
  8
3
 62
7
  6
CONTINUOUS
 10
269.505227
 20
138.973823
 11
269.505227
 21
183.455293
  0
TEXT
  8
3
 62
7
  6
CONTINUOUS
 10
132.995806
 20
150.994757
 40
4.000000
 41
1.000000
  1
700±20
  7
KANJI
 50
90.000000
 51
0.000000
  0
LINE
  8
3
 62
7
  6
CONTINUOUS
 10
132.995806
 20
189.685234
 11
133.513444
 21
187.753382
  0
LINE
  8
3
 62
7
  6
CONTINUOUS
 10
132.995806
 20
189.685234
 11
132.478168
 21
187.753382
  0
LINE
  8
3
 62
7
  6
CONTINUOUS
 10
132.995806
 20
126.304280
 11
132.478168
 21
128.236132
  0
LINE
  8
3
 62
7
  6
CONTINUOUS
 10
132.995806
 20
126.304280
 11
133.513444
 21
128.236132
  0
LINE
  8
3
 62
7
  6
CONTINUOUS
 10
131.995806
 20
189.685234
 11
149.995806
 21
189.685234
  0
LINE
  8
3
 62
7
  6
CONTINUOUS
 10
131.995806
 20
126.304280
 11
147.155981
 21
126.304280
  0
LINE
  8
3
 62
7
  6
CONTINUOUS
 10
132.995806
 20
189.685234
 11
132.995806
 21
126.304280
  0
TEXT
  8
3
 62
7
  6
CONTINUOUS
 10
142.995806
 20
157.537856
 40
4.000000
 41
1.000000
  1
500±50
  7
KANJI
 50
90.000000
 51
0.000000
  0
LINE
  8
3
 62
7
  6
CONTINUOUS
 10
142.995806
 20
183.742233
 11
143.513444
 21
181.810382
  0
LINE
  8
3
 62
7
  6
CONTINUOUS
 10
142.995806
 20
183.742233
 11
142.478168
 21
181.810382
  0
LINE
  8
3
 62
7
  6
CONTINUOUS
 10
142.995806
 20
145.333480
 11
142.478168
 21
147.265331
  0
LINE
  8
3
 62
7
  6
CONTINUOUS
 10
142.995806
 20
145.333480
 11
143.513444
 21
147.265331
  0
LINE
  8
3
 62
7
  6
CONTINUOUS
 10
141.995806
 20
183.742233
 11
149.055981
 21
183.742233
  0
LINE
  8
3
 62
7
  6
CONTINUOUS
 10
141.995806
 20
145.333480
 11
149.055981
 21
145.333480
  0
LINE
  8
3
 62
7
  6
CONTINUOUS
 10
142.995806
 20
183.742233
 11
142.995806
 21
145.333480
  0
TEXT
  8
3
 62
7
  6
CONTINUOUS
 10
132.995806
 20
217.985269
 40
4.000000
 41
0.500000
  1
(65)
  7
KANJI
 50
90.000000
 51
0.000000
  0
LINE
  8
3
 62
7
  6
CONTINUOUS
 10
132.995806
 20
254.285304
 11
133.513444
 21
252.353452
  0
LINE
  8
3
 62
7
  6
CONTINUOUS
 10
132.995806
 20
254.285304
 11
132.478168
 21
252.353452
  0
LINE
  8
3
 62
7
  6
CONTINUOUS
 10
132.995806
 20
189.685234
 11
132.478168
 21
191.617085
  0
LINE
  8
3
 62
7
  6
CONTINUOUS
 10
132.995806
 20
189.685234
 11
133.513444
 21
191.617085
  0
LINE
  8
3
 62
7
  6
CONTINUOUS
 10
131.995806
 20
254.285304
 11
182.795806
 21
254.285304
  0
LINE
  8
3
 62
7
  6
CONTINUOUS
 10
131.995806
 20
189.685234
 11
149.995806
 21
189.685234
  0
LINE
  8
3
 62
7
  6
CONTINUOUS
 10
132.995806
 20
254.285304
 11
132.995806
 21
189.685234
  0
LINE
  8
3
 62
7
  6
CONTINUOUS
 10
151.536635
 20
148.086666
 11
133.382523
 21
102.548823
  0
CIRCLE
  8
3
 62
7
  6
CONTINUOUS
 10
151.536635
 20
148.086666
 40
0.600000
  0
CIRCLE
  8
3
 62
7
  6
CONTINUOUS
 10
151.536635
 20
148.086666
 40
0.300000
  0
CIRCLE
  8
3
 62
7
  6
CONTINUOUS
 10
152.147227
 20
129.458153
 40
0.600000
  0
CIRCLE
  8
3
 62
7
  6
CONTINUOUS
 10
152.147227
 20
129.458153
 40
0.300000
  0
CIRCLE
  8
3
 62
7
  6
CONTINUOUS
 10
155.828569
 20
107.419543
 40
0.600000
  0
CIRCLE
  8
3
 62
7
  6
CONTINUOUS
 10
155.828569
 20
107.419543
 40
0.300000
  0
LINE
  8
3
 62
7
  6
CONTINUOUS
 10
155.828569
 20
107.419543
 11
163.033218
 21
67.548823
  0
TEXT
  8
2
 62
7
  6
CONTINUOUS
 10
207.902560
 20
121.582928
 40
4.000000
 41
1.000000
  1
流体方向
  7
KANJI
 50
0.000000
 51
0.000000
  0
LINE
  8
3
 62
7
  6
CONTINUOUS
 10
234.831441
 20
155.815824
 11
219.475440
 21
172.669823
  0
LINE
  8
3
 62
7
  6
CONTINUOUS
 10
219.475440
 20
172.669823
 11
251.779938
 21
172.669823
  0
TEXT
  8
3
 62
7
  6
CONTINUOUS
 10
219.779938
 20
172.847175
 40
4.000000
 41
1.000000
  1
ストレーナ(#100)
  7
KANJI
 50
0.000000
 51
0.000000
  0
LINE
  8
3
 62
7
  6
CONTINUOUS
 10
234.831441
 20
155.815824
 11
233.147717
 21
156.895210
  0
LINE
  8
3
 62
7
  6
CONTINUOUS
 10
234.831441
 20
155.815824
 11
233.912987
 21
157.592461
  0
LINE
  8
3
 62
7
  6
CONTINUOUS
 10
133.229881
 20
87.548823
 11
94.605445
 21
87.548823
  0
LINE
  8
3
 62
7
  6
CONTINUOUS
 10
152.147227
 20
129.389580
 11
133.382483
 21
87.480162
  0
TEXT
  8
2
 62
7
  6
CONTINUOUS
 10
109.806503
 20
12.099880
 40
12.000000
 41
0.500000
  1
1:2  MKV-1606D
  7
KANJI
 50
0.000000
 51
0.000000
  0
LINE
  8
3
 62
7
  6
CONTINUOUS
 10
133.382523
 20
102.548823
 11
94.496628
 21
102.548823
  0
LINE
  8
3
 62
7
  6
CONTINUOUS
 10
163.033218
 20
67.548823
 11
94.293981
 21
67.548823
  0
TEXT
  8
3
 62
7
  6
CONTINUOUS
 10
94.895724
 20
102.758823
 40
4.000000
 41
1.000000
  1
125ﾟ耐熱（黒色）
  7
KANJI
 50
360.000000
 51
0.000000
  0
TEXT
  8
3
 62
7
  6
CONTINUOUS
 10
94.972034
 20
106.928362
 40
4.000000
 41
1.000000
  1
ポリエチレンチューブ
  7
KANJI
 50
0.000000
 51
0.000000
  0
TEXT
  8
3
 62
7
  6
CONTINUOUS
 10
94.937115
 20
88.134406
 40
2.828805
 41
1.000000
  1
125℃耐熱（２０／０．１８）
  7
KANJI
 50
360.000000
 51
0.000000
  0
TEXT
  8
3
 62
7
  6
CONTINUOUS
 10
94.794356
 20
91.325656
 40
3.662008
 41
1.000000
  1
架橋ポリエチレン電線
  7
KANJI
 50
0.000000
 51
0.000000
  0
TEXT
  8
3
 62
7
  6
CONTINUOUS
 10
94.381832
 20
67.849307
 40
3.496515
 41
1.000000
  1
コンタクト：ＳＹＦ－０１Ｔ－Ｐ０．５Ａ
  7
KANJI
 50
360.000000
 51
0.000000
  0
TEXT
  8
3
 62
7
  6
CONTINUOUS
 10
94.436205
 20
71.738340
 40
3.402202
 41
1.000000
  1
ハウジング：ＹＬＰ－０６Ｖ(赤色）
  7
KANJI
 50
0.000000
 51
0.000000
  0
TEXT
  8
3
 62
7
  6
CONTINUOUS
 10
94.073870
 20
75.421063
 40
3.842139
 41
1.000000
  1
日本圧着端子製ＹＬコネクタ（６極）
  7
KANJI
 50
0.000000
 51
0.000000
  0
TEXT
  8
3
 62
7
  6
CONTINUOUS
 10
78.130845
 20
261.785523
 40
4.000000
 41
1.000000
  1
φ35.2
  7
KANJI
 50
0.000000
 51
0.000000
  0
TEXT
  8
3
 62
7
  6
CONTINUOUS
 10
78.233972
 20
268.770523
 40
4.000000
 41
1.000000
  1
φ66.6
  7
KANJI
 50
0.000000
 51
0.000000
  0
TEXT
  8
3
 62
7
  6
CONTINUOUS
 10
269.251227
 20
163.574293
 40
4.000000
 41
1.000000
  1
φ19.05
  7
KANJI
 50
90.000000
 51
0.000000
  0
TEXT
  8
3
 62
7
  6
CONTINUOUS
 10
266.851227
 20
177.574293
 40
2.000000
 41
0.500000
  1
+0.25
  7
KANJI
 50
90.000000
 51
0.000000
  0
TEXT
  8
3
 62
7
  6
CONTINUOUS
 10
269.251227
 20
177.574293
 40
2.000000
 41
0.500000
  1
+0.1
  7
KANJI
 50
90.000000
 51
0.000000
  0
TEXT
  8
3
 62
7
  6
CONTINUOUS
 10
191.676081
 20
52.351594
 40
4.000000
 41
1.000000
  1
φ12.7
  7
KANJI
 50
0.000000
 51
0.000000
  0
TEXT
  8
3
 62
7
  6
CONTINUOUS
 10
203.676081
 20
54.751594
 40
2.000000
 41
0.500000
  1
+0.25
  7
KANJI
 50
0.000000
 51
0.000000
  0
TEXT
  8
3
 62
7
  6
CONTINUOUS
 10
203.676081
 20
52.351594
 40
2.000000
 41
0.500000
  1
+0.1
  7
KANJI
 50
0.000000
 51
0.000000
  0
TEXT
  8
3
 62
7
  6
CONTINUOUS
 10
81.183435
 20
117.646024
 40
4.000000
 41
1.000000
  1
φ44
  7
KANJI
 50
0.000000
 51
0.000000
  0
LINE
  8
3
 62
7
  6
CONTINUOUS
 10
104.871886
 20
117.048305
 11
106.739845
 21
117.548823
  0
LINE
  8
3
 62
7
  6
CONTINUOUS
 10
104.858568
 20
118.052909
 11
106.739845
 21
117.548823
  0
LINE
  8
3
 62
7
  6
CONTINUOUS
 10
62.739844
 20
117.548823
 11
106.739845
 21
117.548823
  0
LINE
  8
3
 62
7
  6
CONTINUOUS
 10
64.766013
 20
117.005912
 11
62.739844
 21
117.548823
  0
LINE
  8
3
 62
7
  6
CONTINUOUS
 10
64.703244
 20
118.074914
 11
62.739844
 21
117.548823
  0
ENDSEC
  0
EOF
