  0
SECTION
  2
HEADER
  9
$ACADVER
  1
AC1003
  9
$INSBASE
 10
0.000000
 20
0.000000
  9
$EXTMIN
 10
0.000000
 20
0.000000
  9
$EXTMAX
 10
420.000000
 20
296.000000
  9
$LIMMIN
 10
0.000000
 20
0.000000
  9
$LIMMAX
 10
420.000000
 20
296.000000
  9
$VIEWCTR
 10
210.000000
 20
148.000000
  9
$VIEWSIZE
 40
296.000000
  9
$PEXTMIN
 10
0.000000
 20
0.000000
 30
0.000000
  9
$PEXTMAX
 10
210.000000
 20
148.000000
 30
0.000000
  9
$SNAPMODE
 70
     0
  9
$SNAPUNIT
 10
1.000000
 20
1.000000
  9
$SNAPBASE
 10
0.000000
 20
0.000000
  9
$SNAPANG
 50
0.000000
  9
$SNAPISOPAIR
 70
     0
  9
$SNAPSTYLE
 70
     0
  9
$GRIDMODE
 70
     0
  9
$GRIDUNIT
 10
0.000000
 20
0.000000
  9
$ORTHOMODE
 70
     0
  9
$REGENMODE
 70
     1
  9
$FILLMODE
 70
     1
  9
$QTEXTMODE
 70
     0
  9
$DRAGMODE
 70
     2
  9
$LTSCALE
 40
0.500000
  9
$OSMODE
 70
     0
  9
$ATTMODE
 70
     1
  9
$TEXTSIZE
 40
12.000000
  9
$TRACEWID
 40
0.050000
  9
$TEXTSTYLE
  7
STANDARD
  9
$CLAYER
  8
0
  9
$CELTYPE
  6
BYLAYER
  9
$CECOLOR
 62
   256
  9
$DIMSCALE
 40
1.000000
  9
$DIMASZ
 40
1.000000
  9
$DIMEXO
 40
0.000000
  9
$DIMDLI
 40
0.500000
  9
$DIMRND
 40
0.000000
  9
$DIMDLE
 40
0.000000
  9
$DIMEXE
 40
0.000000
  9
$DIMTP
 40
0.000000
  9
$DIMTM
 40
0.000000
  9
$DIMTXT
 40
4.000000
  9
$DIMCEN
 40
0.000000
  9
$DIMTSZ
 40
0.000000
  9
$DIMTOL
 70
     0
  9
$DIMLIM
 70
     0
  9
$DIMTIH
 70
     1
  9
$DIMTOH
 70
     1
  9
$DIMSE1
 70
     0
  9
$DIMSE2
 70
     0
  9
$DIMTAD
 70
     0
  9
$DIMZIN
 70
     0
  9
$DIMBLK
  1

  9
$DIMASO
 70
     0
  9
$DIMSHO
 70
     0
  9
$DIMPOST
  1

  9
$DIMAPOST
  1

  9
$DIMALT
 70
     0
  9
$DIMALTD
 70
     0
  9
$DIMALTF
 40
25.400000
  9
$DIMLFAC
 40
1.000000
  9
$DIMTOFL
 70
     0
  9
$DIMTVP
 40
0.000000
  9
$DIMTIX
 70
     0
  9
$DIMSOXD
 70
     0
  9
$DIMSAH
 70
     0
  9
$DIMBLKL
  1

  9
$DIMBLKR
  1

  9
$LUNITS
 70
     2
  9
$LUPREC
 70
     2
  9
$AXISMODE
 70
     0
  9
$AXISUNIT
 10
1.000000
 20
1.000000
  9
$SKETCHINC
 40
0.000000
  9
$FILLETRAD
 40
0.000000
  9
$AUNITS
 70
     1
  9
$AUPREC
 70
     2
  9
$MENU
  1
ACAD
  9
$ELEVATION
 40
0.000000
  9
$THICKNESS
 40
0.000000
  9
$VIEWDIR
 10
0.000000
 20
0.000000
 30
1.000000
  9
$LIMCHECK
 70
     1
  9
$BLIPMODE
 70
     1
  9
$CHAMFERA
 40
0.000000
  9
$CHAMFERB
 40
0.000000
  9
$FASTZOOM
 70
     1
  9
$SKPOLY
 70
     0
  9
$TDCREATE
 40
0.000000
  9
$TDUPDATE
 40
0.000000
  9
$TDINDWG
 40
0.000000
  9
$TDUSRTIMER
 40
0.000000
  9
$USRTIMER
 70
     1
  9
$ANGBASE
 50
0.000000
  9
$ANGDIR
 70
     0
  9
$PDMODE
 70
     0
  9
$PDSIZE
 40
0.000000
  9
$PLINEWID
 40
0.000000
  9
$COORDS
 70
     2
  9
$USERI1
 70
     0
  9
$USERI2
 70
     0
  9
$USERI3
 70
     0
  9
$USERI4
 70
     0
  9
$USERI5
 70
     0
  9
$USERR1
 40
0.000000
  9
$USERR2
 40
0.000000
  9
$USERR3
 40
0.000000
  9
$USERR4
 40
0.000000
  9
$USERR5
 40
0.000000
  0
ENDSEC
  0
SECTION
  2
TABLES
  0
TABLE
  2
LTYPE
 70
     5
  0
LTYPE
  2
CONTINUOUS
 70
    64
  3
Solid line
 72
    65
 73
     0
 40
0.0
  0
LTYPE
  2
HIDDEN
 70
    64
  3
------------------------
 72
    65
 73
     2
 40
12.6
 49
8.4
 49
-4.2
  0
LTYPE
  2
DOT
 70
    64
  3
････････････････････････
 72
    65
 73
     2
 40
8.0
 49
6.0
 49
-2.0
  0
LTYPE
  2
DASHDOT
 70
    64
  3
--･--･--･--･--･--･--･--
 72
    65
 73
     4
 40
50.5
 49
30.0
 49
-9.0
 49
2.5
 49
-9.0
  0
LTYPE
  2
DIVIDE
 70
    64
  3
--･･--･･--･･--･･--･･--
 72
    65
 73
     6
 40
58.0
 49
30.0
 49
-9.0
 49
2.5
 49
-5.0
 49
2.5
 49
-9.0
  0
LTYPE
  2
ACAD_ISO06W100
 70
    64
  3
____ ... ____ ... ____
 72
    65
 73
     8
 40
37.5
 49
24.0
 49
-3.0
 49
0.5
 49
-3.0
 49
0.5
 49
-3.0
 49
0.5
 49
-3.0
  0
LTYPE
  2
ACAD_ISO14W100
 70
    64
  3
__ . . . __ . . . __ . . . 
 72
    65
 73
     8
 40
25.5
 49
12.0
 49
-3.0
 49
0.5
 49
-3.0
 49
0.5
 49
-3.0
 49
0.5
 49
-3.0
  0
ENDTAB
  0
TABLE
  2
LAYER
 70
3
  0
LAYER
  2
1
 70
64
 62
7
  6
CONTINUOUS
  0
LAYER
  2
2
 70
64
 62
7
  6
CONTINUOUS
  0
LAYER
  2
3
 70
64
 62
7
  6
CONTINUOUS
  0
ENDTAB
  0
TABLE
  2
STYLE
 70
     2
  0
STYLE
  2
STANDARD
 70
    64
 40
0.0
 41
1.0
 50
0.0
 71
     0
 42
0.2
  3
TXT
  4

  0
STYLE
  2
KANJI
 70
    64
 40
0.0
 41
1.0
 50
0.0
 71
     0
 42
0.2
  3
TXT
  4
BIGFONT
  0
ENDTAB
  0
TABLE
  2
VIEW
 70
     0
  0
ENDTAB
  0
ENDSEC
  0
SECTION
  2
BLOCKS
  0
ENDSEC
  0
SECTION
  2
ENTITIES
  0
TEXT
  8
2
 62
7
  6
CONTINUOUS
 10
108.066770
 20
10.767627
 40
6.000000
 41
0.500000
  1
YSK-AA10B-107
  7
KANJI
 50
0.000000
 51
0.000000
  0
LINE
  8
1
 62
7
  6
CONTINUOUS
 10
39.590996
 20
84.617558
 11
66.190995
 21
84.617558
  0
LINE
  8
1
 62
7
  6
CONTINUOUS
 10
45.040995
 20
79.317558
 11
60.740996
 21
79.317558
  0
LINE
  8
1
 62
7
  6
CONTINUOUS
 10
66.190995
 20
84.617558
 11
66.190995
 21
91.126385
  0
LINE
  8
1
 62
7
  6
CONTINUOUS
 10
39.645867
 20
91.417558
 11
66.136125
 21
91.417558
  0
LINE
  8
1
 62
7
  6
CONTINUOUS
 10
39.590996
 20
91.126382
 11
39.590996
 21
84.617558
  0
LINE
  8
1
 62
7
  6
CONTINUOUS
 10
52.890995
 20
58.817558
 11
55.640994
 21
58.817558
  0
LINE
  8
1
 62
7
  6
CONTINUOUS
 10
58.446995
 20
72.317558
 11
52.890995
 21
72.317558
  0
LINE
  8
1
 62
7
  6
CONTINUOUS
 10
58.446995
 20
70.517558
 11
52.890995
 21
70.517558
  0
LINE
  8
1
 62
7
  6
CONTINUOUS
 10
47.334995
 20
72.317558
 11
52.890995
 21
72.317558
  0
LINE
  8
1
 62
7
  6
CONTINUOUS
 10
47.334995
 20
70.517558
 11
52.890995
 21
70.517558
  0
LINE
  8
1
 62
7
  6
CONTINUOUS
 10
63.634182
 20
93.317558
 11
66.136125
 21
91.417558
  0
LINE
  8
1
 62
7
  6
CONTINUOUS
 10
39.645867
 20
91.417558
 11
42.234181
 21
93.317558
  0
ARC
  8
1
 62
7
  6
CONTINUOUS
 10
65.390995
 20
91.126385
 40
0.800001
 50
0.000000
 51
21.343962
  0
ARC
  8
1
 62
7
  6
CONTINUOUS
 10
40.390996
 20
91.126382
 40
0.800001
 50
158.655797
 51
180.000000
  0
ARC
  8
1
 62
7
  6
CONTINUOUS
 10
57.690995
 20
75.817558
 40
3.500000
 50
62.797106
 51
117.202894
  0
ARC
  8
1
 62
7
  6
CONTINUOUS
 10
48.090995
 20
75.817558
 40
3.500000
 50
62.797106
 51
117.202894
  0
ARC
  8
1
 62
7
  6
CONTINUOUS
 10
52.890995
 20
68.817558
 40
10.500000
 50
72.486071
 51
107.743840
  0
LINE
  8
1
 62
7
  6
CONTINUOUS
 10
46.490995
 20
78.930434
 11
47.334995
 21
79.317558
  0
LINE
  8
1
 62
7
  6
CONTINUOUS
 10
59.312645
 20
78.930434
 11
58.468645
 21
79.317558
  0
LINE
  8
1
 62
7
  6
CONTINUOUS
 10
45.690995
 20
97.117558
 11
60.090996
 21
97.117558
  0
LINE
  8
1
 62
7
  6
CONTINUOUS
 10
45.390996
 20
113.117556
 11
45.390996
 21
111.117556
  0
LINE
  8
1
 62
7
  6
CONTINUOUS
 10
45.390996
 20
111.217558
 11
60.390995
 21
111.217558
  0
LINE
  8
1
 62
7
  6
CONTINUOUS
 10
60.390995
 20
111.217558
 11
60.190996
 21
111.017559
  0
LINE
  8
1
 62
7
  6
CONTINUOUS
 10
45.590995
 20
111.017559
 11
45.390996
 21
111.217558
  0
LINE
  8
1
 62
7
  6
CONTINUOUS
 10
51.390995
 20
111.217558
 11
51.390995
 21
107.717558
  0
LINE
  8
1
 62
7
  6
CONTINUOUS
 10
51.390995
 20
103.217559
 11
51.390995
 21
106.717558
  0
LINE
  8
1
 62
7
  6
CONTINUOUS
 10
51.390995
 20
111.017559
 11
45.590995
 21
111.017559
  0
LINE
  8
1
 62
7
  6
CONTINUOUS
 10
54.390995
 20
107.717558
 11
54.390995
 21
111.217558
  0
LINE
  8
1
 62
7
  6
CONTINUOUS
 10
54.390995
 20
106.717558
 11
54.390995
 21
103.217559
  0
LINE
  8
1
 62
7
  6
CONTINUOUS
 10
60.190996
 20
111.017559
 11
54.390995
 21
111.017559
  0
LINE
  8
1
 62
7
  6
CONTINUOUS
 10
51.390995
 20
107.717558
 11
54.390995
 21
107.717558
  0
LINE
  8
1
 62
7
  6
CONTINUOUS
 10
51.390995
 20
109.417558
 11
54.390995
 21
109.417558
  0
LINE
  8
1
 62
7
  6
CONTINUOUS
 10
54.390995
 20
103.217559
 11
51.390995
 21
103.217559
  0
LINE
  8
1
 62
7
  6
CONTINUOUS
 10
51.390995
 20
106.717558
 11
54.390995
 21
106.717558
  0
LINE
  8
1
 62
7
  6
CONTINUOUS
 10
60.390995
 20
113.117556
 11
60.390995
 21
111.217558
  0
LINE
  8
1
 62
7
  6
CONTINUOUS
 10
60.090996
 20
111.017559
 11
60.090996
 21
97.117558
  0
LINE
  8
1
 62
7
  6
CONTINUOUS
 10
45.690995
 20
111.017559
 11
45.690995
 21
97.117558
  0
ARC
  8
1
 62
7
  6
CONTINUOUS
 10
63.134181
 20
112.617556
 40
0.500000
 50
0.000000
 51
90.000000
  0
ARC
  8
1
 62
7
  6
CONTINUOUS
 10
42.734181
 20
112.617556
 40
0.500000
 50
90.000000
 51
180.000000
  0
LINE
  8
1
 62
7
  6
CONTINUOUS
 10
42.734181
 20
113.117556
 11
63.134181
 21
113.117556
  0
LINE
  8
1
 62
7
  6
CONTINUOUS
 10
46.290995
 20
155.044484
 11
46.290995
 21
150.844484
  0
LINE
  8
1
 62
7
  6
CONTINUOUS
 10
46.290995
 20
150.844484
 11
50.490995
 21
150.844484
  0
LINE
  8
1
 62
7
  6
CONTINUOUS
 10
50.490995
 20
150.844484
 11
50.490995
 21
155.044484
  0
LINE
  8
1
 62
7
  6
CONTINUOUS
 10
50.490995
 20
155.044484
 11
46.290995
 21
155.044484
  0
CIRCLE
  8
1
 62
7
  6
CONTINUOUS
 10
52.890995
 20
152.944484
 40
2.050000
  0
CIRCLE
  8
1
 62
7
  6
CONTINUOUS
 10
57.390995
 20
152.944484
 40
2.050000
  0
LINE
  8
1
 62
7
  6
CONTINUOUS
 10
51.390995
 20
149.026432
 11
51.390995
 21
150.144484
  0
LINE
  8
1
 62
7
  6
CONTINUOUS
 10
51.390995
 20
150.144484
 11
54.390995
 21
150.144484
  0
LINE
  8
1
 62
7
  6
CONTINUOUS
 10
54.390995
 20
150.144484
 11
54.390995
 21
149.026432
  0
CIRCLE
  8
1
 62
7
  6
CONTINUOUS
 10
52.890995
 20
157.344484
 40
13.300000
  0
LINE
  8
1
 62
7
  6
CONTINUOUS
 10
60.390995
 20
157.344484
 11
60.390995
 21
149.026432
  0
LINE
  8
1
 62
7
  6
CONTINUOUS
 10
60.390995
 20
149.026432
 11
45.390995
 21
149.026432
  0
LINE
  8
1
 62
7
  6
CONTINUOUS
 10
45.390995
 20
149.026432
 11
45.390995
 21
157.344484
  0
LINE
  8
1
 62
7
  6
CONTINUOUS
 10
63.090995
 20
157.344484
 11
60.390995
 21
157.344484
  0
LINE
  8
1
 62
7
  6
CONTINUOUS
 10
45.390995
 20
157.344484
 11
42.690995
 21
157.344484
  0
LINE
  8
1
 62
7
  6
CONTINUOUS
 10
44.853583
 20
165.144484
 11
60.928408
 21
165.144484
  0
LINE
  8
1
 62
7
  6
CONTINUOUS
 10
45.288364
 20
164.144484
 11
60.493626
 21
164.144484
  0
ARC
  8
1
 62
7
  6
CONTINUOUS
 10
52.890995
 20
157.344484
 40
10.200000
 50
138.189685
 51
-180.000000
  0
ARC
  8
1
 62
7
  6
CONTINUOUS
 10
52.890995
 20
157.344484
 40
10.200000
 50
0.000000
 51
41.810315
  0
CIRCLE
  8
1
 62
7
  6
CONTINUOUS
 10
52.890995
 20
157.344484
 40
11.200000
  0
LINE
  8
1
 62
7
  6
CONTINUOUS
 10
45.390995
 20
155.944484
 11
60.390995
 21
155.944484
  0
CIRCLE
  8
1
 62
7
  6
CONTINUOUS
 10
57.390995
 20
152.944484
 40
0.650000
  0
CIRCLE
  8
1
 62
7
  6
CONTINUOUS
 10
48.390995
 20
152.944484
 40
0.650000
  0
CIRCLE
  8
1
 62
7
  6
CONTINUOUS
 10
52.890995
 20
152.944484
 40
0.650000
  0
LINE
  8
1
 62
7
  6
CONTINUOUS
 10
57.490995
 20
60.667558
 11
57.490995
 21
62.517558
  0
LINE
  8
1
 62
7
  6
CONTINUOUS
 10
55.640994
 20
58.817558
 11
57.490995
 21
60.667559
  0
LINE
  8
1
 62
7
  6
CONTINUOUS
 10
52.890995
 20
60.667558
 11
57.490994
 21
60.667558
  0
LINE
  8
1
 62
7
  6
CONTINUOUS
 10
52.890995
 20
62.517558
 11
57.490995
 21
62.517558
  0
LINE
  8
1
 62
7
  6
CONTINUOUS
 10
58.446995
 20
63.473553
 11
58.446995
 21
72.317558
  0
LINE
  8
1
 62
7
  6
CONTINUOUS
 10
58.446995
 20
63.473553
 11
52.890995
 21
63.473553
  0
LINE
  8
1
 62
7
  6
CONTINUOUS
 10
57.490995
 20
62.517553
 11
58.446995
 21
63.473553
  0
LINE
  8
1
 62
7
  6
CONTINUOUS
 10
59.290995
 20
78.930434
 11
59.290995
 21
73.161558
  0
LINE
  8
1
 62
7
  6
CONTINUOUS
 10
58.446995
 20
72.317558
 11
59.290995
 21
73.161558
  0
ARC
  8
1
 62
7
  6
CONTINUOUS
 10
52.890995
 20
78.805903
 40
6.488346
 50
-119.550597
 51
-60.449403
  0
LINE
  8
1
 62
7
  6
CONTINUOUS
 10
56.090995
 20
78.930434
 11
56.090995
 21
73.161558
  0
LINE
  8
1
 62
7
  6
CONTINUOUS
 10
49.690995
 20
78.930434
 11
49.690995
 21
73.161558
  0
LINE
  8
1
 62
7
  6
CONTINUOUS
 10
52.890995
 20
58.817558
 11
50.140997
 21
58.817558
  0
LINE
  8
1
 62
7
  6
CONTINUOUS
 10
48.290995
 20
60.667558
 11
48.290995
 21
62.517558
  0
LINE
  8
1
 62
7
  6
CONTINUOUS
 10
50.140997
 20
58.817558
 11
48.290996
 21
60.667559
  0
LINE
  8
1
 62
7
  6
CONTINUOUS
 10
52.890995
 20
60.667558
 11
48.290997
 21
60.667558
  0
LINE
  8
1
 62
7
  6
CONTINUOUS
 10
52.890995
 20
62.517558
 11
48.290995
 21
62.517558
  0
LINE
  8
1
 62
7
  6
CONTINUOUS
 10
47.334995
 20
63.473553
 11
47.334995
 21
72.317558
  0
LINE
  8
1
 62
7
  6
CONTINUOUS
 10
47.334995
 20
63.473553
 11
52.890995
 21
63.473553
  0
LINE
  8
1
 62
7
  6
CONTINUOUS
 10
48.290995
 20
62.517553
 11
47.334995
 21
63.473553
  0
LINE
  8
1
 62
7
  6
CONTINUOUS
 10
46.490995
 20
78.930434
 11
46.490995
 21
73.161558
  0
LINE
  8
1
 62
7
  6
CONTINUOUS
 10
47.334995
 20
72.317558
 11
46.490995
 21
73.161558
  0
ARC
  8
1
 62
7
  6
CONTINUOUS
 10
57.690995
 20
74.255724
 40
1.938349
 50
-145.633597
 51
-55.633498
  0
ARC
  8
1
 62
7
  6
CONTINUOUS
 10
48.090996
 20
74.255724
 40
1.938349
 50
-124.366502
 51
-34.366403
  0
LINE
  8
1
 62
7
  6
CONTINUOUS
 10
120.040994
 20
79.317558
 11
135.740996
 21
79.317558
  0
ARC
  8
1
 62
7
  6
CONTINUOUS
 10
120.040994
 20
81.317558
 40
2.000000
 50
-180.000000
 51
-90.000000
  0
ARC
  8
1
 62
7
  6
CONTINUOUS
 10
117.540995
 20
84.117558
 40
0.500000
 50
0.000000
 51
90.000000
  0
LINE
  8
1
 62
7
  6
CONTINUOUS
 10
118.040995
 20
84.117558
 11
118.040995
 21
81.317558
  0
LINE
  8
1
 62
7
  6
CONTINUOUS
 10
133.446995
 20
72.317558
 11
127.890995
 21
72.317558
  0
LINE
  8
1
 62
7
  6
CONTINUOUS
 10
122.334995
 20
72.317558
 11
127.890995
 21
72.317558
  0
LINE
  8
1
 62
7
  6
CONTINUOUS
 10
127.890995
 20
78.810326
 11
127.890995
 21
72.824719
  0
ARC
  8
1
 62
7
  6
CONTINUOUS
 10
130.890995
 20
70.192253
 40
9.125305
 50
70.806705
 51
109.193295
  0
LINE
  8
1
 62
7
  6
CONTINUOUS
 10
132.803231
 20
79.317558
 11
133.890995
 21
78.810325
  0
ARC
  8
1
 62
7
  6
CONTINUOUS
 10
124.890995
 20
70.192253
 40
9.125305
 50
70.806705
 51
109.193295
  0
LINE
  8
1
 62
7
  6
CONTINUOUS
 10
122.978759
 20
79.317558
 11
121.890995
 21
78.810325
  0
LINE
  8
1
 62
7
  6
CONTINUOUS
 10
114.590995
 20
91.126382
 11
114.590995
 21
84.617558
  0
LINE
  8
1
 62
7
  6
CONTINUOUS
 10
114.645867
 20
91.417558
 11
117.234181
 21
93.317558
  0
ARC
  8
1
 62
7
  6
CONTINUOUS
 10
115.390996
 20
91.126382
 40
0.800001
 50
158.655797
 51
180.000000
  0
ARC
  8
1
 62
7
  6
CONTINUOUS
 10
120.871499
 20
112.617556
 40
0.500000
 50
90.000000
 51
180.000000
  0
ARC
  8
1
 62
7
  6
CONTINUOUS
 10
135.371498
 20
112.617556
 40
0.500000
 50
0.000000
 51
90.000000
  0
LINE
  8
1
 62
7
  6
CONTINUOUS
 10
120.776498
 20
113.117556
 11
135.371498
 21
113.117556
  0
LINE
  8
1
 62
7
  6
CONTINUOUS
 10
119.774031
 20
111.217556
 11
119.774031
 21
97.117558
  0
LINE
  8
1
 62
7
  6
CONTINUOUS
 10
135.871498
 20
112.617556
 11
135.871498
 21
97.117558
  0
ARC
  8
1
 62
7
  6
CONTINUOUS
 10
117.874031
 20
96.617558
 40
0.500000
 50
90.000000
 51
180.000000
  0
LINE
  8
1
 62
7
  6
CONTINUOUS
 10
117.874031
 20
97.117558
 11
119.754534
 21
97.117558
  0
LINE
  8
1
 62
7
  6
CONTINUOUS
 10
117.393527
 20
93.317558
 11
117.393527
 21
96.755821
  0
ARC
  8
1
 62
7
  6
CONTINUOUS
 10
130.890995
 20
78.071312
 40
5.753754
 50
-121.426125
 51
-58.573875
  0
ARC
  8
1
 62
7
  6
CONTINUOUS
 10
124.890995
 20
78.071307
 40
5.753749
 50
-121.426151
 51
-58.573849
  0
LINE
  8
1
 62
7
  6
CONTINUOUS
 10
133.890995
 20
78.810326
 11
133.890995
 21
73.161558
  0
LINE
  8
1
 62
7
  6
CONTINUOUS
 10
121.890995
 20
78.810326
 11
121.890995
 21
73.161558
  0
LINE
  8
1
 62
7
  6
CONTINUOUS
 10
133.446995
 20
72.317558
 11
133.890995
 21
73.161558
  0
LINE
  8
1
 62
7
  6
CONTINUOUS
 10
122.334995
 20
72.317558
 11
121.890995
 21
73.161558
  0
LINE
  8
1
 62
7
  6
CONTINUOUS
 10
127.890995
 20
58.817558
 11
130.640994
 21
58.817558
  0
LINE
  8
1
 62
7
  6
CONTINUOUS
 10
133.446995
 20
72.317558
 11
127.890995
 21
72.317558
  0
LINE
  8
1
 62
7
  6
CONTINUOUS
 10
133.446995
 20
70.517558
 11
127.890995
 21
70.517558
  0
LINE
  8
1
 62
7
  6
CONTINUOUS
 10
122.334995
 20
72.317558
 11
127.890995
 21
72.317558
  0
LINE
  8
1
 62
7
  6
CONTINUOUS
 10
122.334995
 20
70.517558
 11
127.890995
 21
70.517558
  0
LINE
  8
1
 62
7
  6
CONTINUOUS
 10
132.490995
 20
60.667558
 11
132.490995
 21
62.517558
  0
LINE
  8
1
 62
7
  6
CONTINUOUS
 10
130.640994
 20
58.817558
 11
132.490994
 21
60.667559
  0
LINE
  8
1
 62
7
  6
CONTINUOUS
 10
127.890995
 20
60.667558
 11
132.490994
 21
60.667558
  0
LINE
  8
1
 62
7
  6
CONTINUOUS
 10
127.890995
 20
62.517558
 11
132.490995
 21
62.517558
  0
LINE
  8
1
 62
7
  6
CONTINUOUS
 10
133.446995
 20
63.473553
 11
133.446995
 21
72.317558
  0
LINE
  8
1
 62
7
  6
CONTINUOUS
 10
133.446995
 20
63.473553
 11
127.890995
 21
63.473553
  0
LINE
  8
1
 62
7
  6
CONTINUOUS
 10
132.490995
 20
62.517553
 11
133.446995
 21
63.473553
  0
LINE
  8
1
 62
7
  6
CONTINUOUS
 10
127.890995
 20
58.817558
 11
125.140997
 21
58.817558
  0
LINE
  8
1
 62
7
  6
CONTINUOUS
 10
123.290995
 20
60.667558
 11
123.290995
 21
62.517558
  0
LINE
  8
1
 62
7
  6
CONTINUOUS
 10
125.140997
 20
58.817558
 11
123.290996
 21
60.667559
  0
LINE
  8
1
 62
7
  6
CONTINUOUS
 10
127.890995
 20
60.667558
 11
123.290997
 21
60.667558
  0
LINE
  8
1
 62
7
  6
CONTINUOUS
 10
127.890995
 20
62.517558
 11
123.290995
 21
62.517558
  0
LINE
  8
1
 62
7
  6
CONTINUOUS
 10
122.334995
 20
63.473553
 11
122.334995
 21
72.317558
  0
LINE
  8
1
 62
7
  6
CONTINUOUS
 10
122.334995
 20
63.473553
 11
127.890995
 21
63.473553
  0
LINE
  8
1
 62
7
  6
CONTINUOUS
 10
123.290995
 20
62.517553
 11
122.334995
 21
63.473553
  0
LINE
  8
1
 62
7
  6
CONTINUOUS
 10
126.371499
 20
125.117555
 11
126.371499
 21
113.117556
  0
LINE
  8
1
 62
7
  6
CONTINUOUS
 10
120.371499
 20
126.117555
 11
126.371499
 21
126.117555
  0
LINE
  8
1
 62
7
  6
CONTINUOUS
 10
120.371499
 20
126.117555
 11
119.371499
 21
126.117555
  0
LINE
  8
1
 62
7
  6
CONTINUOUS
 10
119.371499
 20
126.117555
 11
119.371499
 21
125.117555
  0
LINE
  8
1
 62
7
  6
CONTINUOUS
 10
119.371499
 20
125.117555
 11
120.371499
 21
125.117555
  0
LINE
  8
1
 62
7
  6
CONTINUOUS
 10
126.371499
 20
126.117555
 11
127.371499
 21
126.117555
  0
LINE
  8
1
 62
7
  6
CONTINUOUS
 10
127.371499
 20
126.117555
 11
127.371499
 21
125.117555
  0
LINE
  8
1
 62
7
  6
CONTINUOUS
 10
127.371499
 20
125.117555
 11
126.371499
 21
125.117555
  0
LINE
  8
1
 62
7
  6
CONTINUOUS
 10
117.374031
 20
104.417556
 11
117.674031
 21
104.117555
  0
LINE
  8
1
 62
7
  6
CONTINUOUS
 10
117.674031
 20
104.117555
 11
119.474030
 21
104.117555
  0
LINE
  8
1
 62
7
  6
CONTINUOUS
 10
120.371499
 20
112.617556
 11
120.371499
 21
125.117555
  0
LINE
  8
1
 62
7
  6
CONTINUOUS
 10
119.371499
 20
112.717556
 11
120.371499
 21
112.717556
  0
LINE
  8
1
 62
7
  6
CONTINUOUS
 10
119.774031
 20
106.117555
 11
119.374031
 21
106.117555
  0
LINE
  8
1
 62
7
  6
CONTINUOUS
 10
119.374031
 20
111.217556
 11
119.374031
 21
106.117555
  0
ARC
  8
1
 62
7
  6
CONTINUOUS
 10
118.371499
 20
111.717556
 40
0.500000
 50
180.000000
 51
-90.000000
  0
LINE
  8
1
 62
7
  6
CONTINUOUS
 10
119.774031
 20
111.217556
 11
118.371499
 21
111.217556
  0
LINE
  8
1
 62
7
  6
CONTINUOUS
 10
59.290995
 20
77.017558
 11
71.390995
 21
77.017558
  0
LINE
  8
1
 62
7
  6
CONTINUOUS
 10
71.390995
 20
101.017558
 11
63.634181
 21
101.017558
  0
CIRCLE
  8
1
 62
7
  6
CONTINUOUS
 10
81.890995
 20
89.017558
 40
2.250000
  0
LINE
  8
1
 62
7
  6
CONTINUOUS
 10
71.390995
 20
77.017558
 11
85.023451
 21
81.561710
  0
ARC
  8
1
 62
7
  6
CONTINUOUS
 10
84.390995
 20
83.459076
 40
2.000000
 50
-71.565051
 51
0.000000
  0
LINE
  8
1
 62
7
  6
CONTINUOUS
 10
86.390995
 20
83.459076
 11
86.390995
 21
94.576040
  0
LINE
  8
1
 62
7
  6
CONTINUOUS
 10
85.023451
 20
96.473406
 11
71.390995
 21
101.017558
  0
ARC
  8
1
 62
7
  6
CONTINUOUS
 10
84.390995
 20
94.576040
 40
2.000000
 50
0.000000
 51
71.565051
  0
LINE
  8
1
 62
7
  6
CONTINUOUS
 10
65.890995
 20
98.417558
 11
60.890995
 21
98.417558
  0
LINE
  8
1
 62
7
  6
CONTINUOUS
 10
72.890995
 20
90.817558
 11
72.890995
 21
84.617558
  0
LINE
  8
1
 62
7
  6
CONTINUOUS
 10
72.890995
 20
84.617558
 11
60.890995
 21
84.617558
  0
LINE
  8
1
 62
7
  6
CONTINUOUS
 10
64.890995
 20
84.617558
 11
64.890995
 21
79.617558
  0
LINE
  8
1
 62
7
  6
CONTINUOUS
 10
64.890995
 20
79.617558
 11
61.890995
 21
79.617558
  0
LINE
  8
1
 62
7
  6
CONTINUOUS
 10
61.890995
 20
79.617558
 11
61.890995
 21
84.617558
  0
LINE
  8
1
 62
7
  6
CONTINUOUS
 10
46.490995
 20
77.017558
 11
34.390995
 21
77.017558
  0
LINE
  8
1
 62
7
  6
CONTINUOUS
 10
34.390995
 20
101.017558
 11
42.147810
 21
101.017558
  0
CIRCLE
  8
1
 62
7
  6
CONTINUOUS
 10
23.890995
 20
89.017558
 40
2.250000
  0
LINE
  8
1
 62
7
  6
CONTINUOUS
 10
34.390995
 20
77.017558
 11
20.758540
 21
81.561710
  0
ARC
  8
1
 62
7
  6
CONTINUOUS
 10
21.390995
 20
83.459076
 40
2.000000
 50
-180.000000
 51
-108.434949
  0
LINE
  8
1
 62
7
  6
CONTINUOUS
 10
19.390995
 20
83.459076
 11
19.390995
 21
94.576040
  0
LINE
  8
1
 62
7
  6
CONTINUOUS
 10
20.758540
 20
96.473406
 11
34.390995
 21
101.017558
  0
ARC
  8
1
 62
7
  6
CONTINUOUS
 10
21.390995
 20
94.576040
 40
2.000000
 50
108.434949
 51
-180.000000
  0
LINE
  8
1
 62
7
  6
CONTINUOUS
 10
39.890995
 20
98.417558
 11
44.890995
 21
98.417558
  0
LINE
  8
1
 62
7
  6
CONTINUOUS
 10
32.890995
 20
90.817558
 11
32.890995
 21
84.617558
  0
LINE
  8
1
 62
7
  6
CONTINUOUS
 10
32.890995
 20
84.617558
 11
44.890995
 21
84.617558
  0
LINE
  8
1
 62
7
  6
CONTINUOUS
 10
40.890995
 20
84.617558
 11
40.890995
 21
79.617558
  0
LINE
  8
1
 62
7
  6
CONTINUOUS
 10
40.890995
 20
79.617558
 11
43.890995
 21
79.617558
  0
LINE
  8
1
 62
7
  6
CONTINUOUS
 10
43.890995
 20
79.617558
 11
43.890995
 21
84.617558
  0
LINE
  8
1
 62
7
  6
CONTINUOUS
 10
123.871499
 20
150.872071
 11
123.871499
 21
126.117555
  0
LINE
  8
1
 62
7
  6
CONTINUOUS
 10
122.871499
 20
151.372071
 11
122.871499
 21
126.117555
  0
ARC
  8
1
 62
7
  6
CONTINUOUS
 10
127.433541
 20
149.547534
 40
3.800335
 50
105.922085
 51
159.602478
  0
ARC
  8
1
 62
7
  6
CONTINUOUS
 10
126.933484
 20
151.081272
 40
3.069123
 50
100.180899
 51
-176.091509
  0
ARC
  8
1
 62
7
  6
CONTINUOUS
 10
128.278090
 20
150.389299
 40
4.497796
 50
114.806805
 51
168.442041
  0
ARC
  8
1
 62
7
  6
CONTINUOUS
 10
127.417578
 20
151.919961
 40
3.601518
 50
106.561333
 51
-169.933910
  0
ARC
  8
1
 62
7
  6
CONTINUOUS
 10
127.417578
 20
151.919961
 40
3.601518
 50
106.561333
 51
-169.933910
  0
ARC
  8
1
 62
7
  6
CONTINUOUS
 10
127.572813
 20
151.962819
 40
4.826188
 50
104.174506
 51
-166.937945
  0
ARC
  8
1
 62
7
  6
CONTINUOUS
 10
128.545783
 20
151.540560
 40
4.721844
 50
117.151473
 51
-171.861073
  0
ARC
  8
1
 62
7
  6
CONTINUOUS
 10
129.719906
 20
154.039994
 40
0.894726
 50
111.568320
 51
-110.526118
  0
ARC
  8
1
 62
7
  6
CONTINUOUS
 10
128.964403
 20
155.741540
 40
0.968482
 50
-63.865759
 51
68.409610
  0
ARC
  8
1
 62
7
  6
CONTINUOUS
 10
128.219906
 20
154.039994
 40
0.894726
 50
111.568320
 51
-110.526118
  0
ARC
  8
1
 62
7
  6
CONTINUOUS
 10
127.464403
 20
155.741540
 40
0.968482
 50
-63.865759
 51
68.409610
  0
LINE
  8
1
 62
7
  6
CONTINUOUS
 10
141.890995
 20
77.017558
 11
141.890995
 21
101.017558
  0
LINE
  8
1
 62
7
  6
CONTINUOUS
 10
136.890995
 20
77.017558
 11
141.890995
 21
77.017558
  0
ARC
  8
1
 62
7
  6
CONTINUOUS
 10
136.890995
 20
78.017558
 40
1.000000
 50
180.000000
 51
-90.000000
  0
LINE
  8
1
 62
7
  6
CONTINUOUS
 10
141.890995
 20
101.017558
 11
136.890995
 21
101.017558
  0
LINE
  8
1
 62
7
  6
CONTINUOUS
 10
135.890995
 20
100.017558
 11
135.890995
 21
78.017558
  0
ARC
  8
1
 62
7
  6
CONTINUOUS
 10
136.890995
 20
100.017558
 40
1.000000
 50
90.000000
 51
180.000000
  0
LINE
  8
1
 62
7
  6
CONTINUOUS
 10
135.890995
 20
98.417558
 11
120.890995
 21
98.417558
  0
LINE
  8
1
 62
7
  6
CONTINUOUS
 10
120.890995
 20
84.617558
 11
120.890995
 21
79.617558
  0
LINE
  8
1
 62
7
  6
CONTINUOUS
 10
120.890995
 20
79.617558
 11
135.890995
 21
79.617558
  0
LINE
  8
1
 62
7
  6
CONTINUOUS
 10
123.890995
 20
90.817558
 11
123.890995
 21
84.617558
  0
LINE
  8
1
 62
7
  6
CONTINUOUS
 10
129.890995
 20
90.817558
 11
129.890995
 21
84.617558
  0
LINE
  8
1
 62
7
  6
CONTINUOUS
 10
133.890995
 20
90.817558
 11
133.890995
 21
84.617558
  0
LINE
  8
1
 62
7
  6
CONTINUOUS
 10
66.190995
 20
90.817558
 11
72.890995
 21
90.817558
  0
LINE
  8
1
 62
7
  6
CONTINUOUS
 10
65.890995
 20
93.417558
 11
65.890995
 21
98.417558
  0
LINE
  8
1
 62
7
  6
CONTINUOUS
 10
60.890995
 20
98.417558
 11
60.890995
 21
93.317558
  0
LINE
  8
1
 62
7
  6
CONTINUOUS
 10
44.890995
 20
98.417558
 11
44.890995
 21
93.317558
  0
LINE
  8
1
 62
7
  6
CONTINUOUS
 10
39.890995
 20
98.417558
 11
39.890995
 21
93.417558
  0
LINE
  8
1
 62
7
  6
CONTINUOUS
 10
39.590996
 20
90.817558
 11
32.890995
 21
90.817558
  0
LINE
  8
1
 62
7
  6
CONTINUOUS
 10
39.890995
 20
93.317558
 11
65.890995
 21
93.317558
  0
LINE
  8
1
 62
7
  6
CONTINUOUS
 10
120.890995
 20
98.417558
 11
120.890995
 21
93.317558
  0
LINE
  8
1
 62
7
  6
CONTINUOUS
 10
123.890995
 20
90.817558
 11
135.890995
 21
90.817558
  0
LINE
  8
1
 62
7
  6
CONTINUOUS
 10
77.213177
 20
95.672071
 11
77.213177
 21
92.172071
  0
LINE
  8
1
 62
7
  6
CONTINUOUS
 10
77.213177
 20
92.172071
 11
82.863177
 21
92.172071
  0
LINE
  8
1
 62
7
  6
CONTINUOUS
 10
82.863177
 20
92.172071
 11
82.863177
 21
95.672071
  0
LINE
  8
1
 62
7
  6
CONTINUOUS
 10
82.863177
 20
95.672071
 11
77.213177
 21
95.672071
  0
LINE
  8
1
 62
7
  6
CONTINUOUS
 10
42.234181
 20
112.617556
 11
42.234181
 21
98.417558
  0
LINE
  8
1
 62
7
  6
CONTINUOUS
 10
63.634181
 20
112.617556
 11
63.634181
 21
98.417558
  0
LINE
  8
1
 62
7
  6
CONTINUOUS
 10
117.393527
 20
93.317558
 11
135.890995
 21
93.317558
  0
LINE
  8
1
 62
7
  6
CONTINUOUS
 10
114.645867
 20
91.417558
 11
135.890995
 21
91.417558
  0
LINE
  8
1
 62
7
  6
CONTINUOUS
 10
114.590995
 20
84.617558
 11
135.890995
 21
84.617558
  0
ARC
  8
1
 62
7
  6
CONTINUOUS
 10
45.040995
 20
81.317558
 40
2.000000
 50
-124.077184
 51
-90.000000
  0
ARC
  8
1
 62
7
  6
CONTINUOUS
 10
60.740996
 20
81.317558
 40
2.000000
 50
-90.000000
 51
-55.922816
  0
TEXT
  8
1
 62
7
  6
CONTINUOUS
 10
77.213177
 20
91.922071
 40
3.500000
 41
0.528571
  1
PBT
  7
KANJI
 50
0.000000
 51
0.000000
  0
LINE
  8
1
 62
7
  6
CONTINUOUS
 10
57.614509
 20
158.126105
 11
58.747847
 21
158.126105
  0
ARC
  8
1
 62
7
  6
CONTINUOUS
 10
58.747847
 20
158.288674
 40
0.162569
 50
-89.988330
 51
-43.807932
  0
LINE
  8
1
 62
7
  6
CONTINUOUS
 10
58.863967
 20
158.172553
 11
59.031181
 21
158.455888
  0
ARC
  8
1
 62
7
  6
CONTINUOUS
 10
58.891836
 20
158.539494
 40
0.162569
 50
-30.973677
 51
29.530666
  0
LINE
  8
1
 62
7
  6
CONTINUOUS
 10
59.031181
 20
158.623101
 11
58.571343
 21
159.412722
  0
LINE
  8
1
 62
7
  6
CONTINUOUS
 10
58.571343
 20
159.412722
 11
58.701398
 21
159.635673
  0
LINE
  8
1
 62
7
  6
CONTINUOUS
 10
58.701398
 20
159.635673
 11
59.704681
 21
159.635673
  0
LINE
  8
1
 62
7
  6
CONTINUOUS
 10
59.704681
 20
159.635673
 11
59.816157
 21
159.826111
  0
LINE
  8
1
 62
7
  6
CONTINUOUS
 10
59.816157
 20
159.826111
 11
58.687464
 21
159.826111
  0
ARC
  8
1
 62
7
  6
CONTINUOUS
 10
58.687464
 20
159.663542
 40
0.162569
 50
89.977713
 51
136.158111
  0
LINE
  8
1
 62
7
  6
CONTINUOUS
 10
58.571343
 20
159.770373
 11
58.404130
 21
159.491683
  0
ARC
  8
1
 62
7
  6
CONTINUOUS
 10
58.543474
 20
159.408076
 40
0.162569
 50
149.049662
 51
-150.445995
  0
LINE
  8
1
 62
7
  6
CONTINUOUS
 10
58.404130
 20
159.333759
 11
58.863967
 21
158.539494
  0
LINE
  8
1
 62
7
  6
CONTINUOUS
 10
58.863967
 20
158.539494
 11
58.729267
 21
158.311898
  0
LINE
  8
1
 62
7
  6
CONTINUOUS
 10
58.729267
 20
158.311898
 11
57.725985
 21
158.311898
  0
LINE
  8
1
 62
7
  6
CONTINUOUS
 10
57.725985
 20
158.311898
 11
57.614509
 21
158.126105
  0
LINE
  8
1
 62
7
  6
CONTINUOUS
 10
57.159317
 20
158.172553
 11
58.111506
 21
159.826111
  0
LINE
  8
1
 62
7
  6
CONTINUOUS
 10
58.111506
 20
159.826111
 11
57.902489
 21
159.826111
  0
LINE
  8
1
 62
7
  6
CONTINUOUS
 10
57.902489
 20
159.826111
 11
57.029262
 21
158.311898
  0
LINE
  8
1
 62
7
  6
CONTINUOUS
 10
57.029262
 20
158.311898
 11
56.718058
 21
158.311898
  0
LINE
  8
1
 62
7
  6
CONTINUOUS
 10
56.718058
 20
158.311898
 11
56.718058
 21
159.635673
  0
LINE
  8
1
 62
7
  6
CONTINUOUS
 10
56.718058
 20
159.635673
 11
57.122158
 21
159.635673
  0
LINE
  8
1
 62
7
  6
CONTINUOUS
 10
57.122158
 20
159.635673
 11
57.122158
 21
159.826111
  0
LINE
  8
1
 62
7
  6
CONTINUOUS
 10
57.122158
 20
159.826111
 11
56.690190
 21
159.826111
  0
ARC
  8
1
 62
7
  6
CONTINUOUS
 10
56.690190
 20
159.663542
 40
0.162569
 50
89.977713
 51
166.754058
  0
LINE
  8
1
 62
7
  6
CONTINUOUS
 10
56.536910
 20
159.700700
 11
56.536910
 21
158.325833
  0
ARC
  8
1
 62
7
  6
CONTINUOUS
 10
56.690190
 20
158.288674
 40
0.162569
 50
166.754058
 51
-89.998948
  0
LINE
  8
1
 62
7
  6
CONTINUOUS
 10
56.690190
 20
158.126105
 11
57.038552
 21
158.126105
  0
ARC
  8
1
 62
7
  6
CONTINUOUS
 10
57.038552
 20
158.288674
 40
0.162569
 50
-89.988330
 51
-42.719312
  0
LINE
  8
1
 62
7
  6
CONTINUOUS
 10
54.753297
 20
158.126105
 11
55.988821
 21
158.126105
  0
ARC
  8
1
 62
7
  6
CONTINUOUS
 10
55.988821
 20
158.288674
 40
0.162569
 50
-89.988330
 51
0.023339
  0
LINE
  8
1
 62
7
  6
CONTINUOUS
 10
56.146745
 20
158.288674
 11
56.146745
 21
159.663542
  0
ARC
  8
1
 62
7
  6
CONTINUOUS
 10
55.988821
 20
159.663542
 40
0.162569
 50
0.023339
 51
89.977713
  0
LINE
  8
1
 62
7
  6
CONTINUOUS
 10
55.988821
 20
159.826111
 11
54.966960
 21
159.826111
  0
ARC
  8
1
 62
7
  6
CONTINUOUS
 10
54.966960
 20
159.663542
 40
0.162569
 50
89.977713
 51
176.723523
  0
LINE
  8
1
 62
7
  6
CONTINUOUS
 10
54.809035
 20
159.672832
 11
54.906577
 21
159.101518
  0
ARC
  8
1
 62
7
  6
CONTINUOUS
 10
55.069146
 20
159.092228
 40
0.162569
 50
176.723523
 51
-104.838555
  0
LINE
  8
1
 62
7
  6
CONTINUOUS
 10
55.027342
 20
158.934305
 11
55.273518
 21
158.934305
  0
LINE
  8
1
 62
7
  6
CONTINUOUS
 10
55.273518
 20
158.934305
 11
55.273518
 21
159.120097
  0
LINE
  8
1
 62
7
  6
CONTINUOUS
 10
55.273518
 20
159.120097
 11
55.087725
 21
159.120097
  0
LINE
  8
1
 62
7
  6
CONTINUOUS
 10
55.087725
 20
159.120097
 11
54.990183
 21
159.635673
  0
LINE
  8
1
 62
7
  6
CONTINUOUS
 10
54.990183
 20
159.635673
 11
55.965597
 21
159.635673
  0
LINE
  8
1
 62
7
  6
CONTINUOUS
 10
55.965597
 20
159.635673
 11
55.965597
 21
158.311898
  0
LINE
  8
1
 62
7
  6
CONTINUOUS
 10
55.965597
 20
158.311898
 11
54.753297
 21
158.311898
  0
LINE
  8
1
 62
7
  6
CONTINUOUS
 10
54.753297
 20
158.311898
 11
54.753297
 21
158.126105
  0
LINE
  8
1
 62
7
  6
CONTINUOUS
 10
54.367777
 20
158.126105
 11
54.367777
 21
159.826111
  0
LINE
  8
1
 62
7
  6
CONTINUOUS
 10
54.367777
 20
159.826111
 11
54.181984
 21
159.826111
  0
LINE
  8
1
 62
7
  6
CONTINUOUS
 10
54.181984
 20
159.826111
 11
54.181984
 21
158.126105
  0
LINE
  8
1
 62
7
  6
CONTINUOUS
 10
54.181984
 20
158.126105
 11
54.367777
 21
158.126105
  0
LINE
  8
1
 62
7
  6
CONTINUOUS
 10
53.712856
 20
158.832119
 11
53.833622
 21
158.832119
  0
LINE
  8
1
 62
7
  6
CONTINUOUS
 10
53.833622
 20
158.832119
 11
53.833622
 21
159.826111
  0
LINE
  8
1
 62
7
  6
CONTINUOUS
 10
53.833622
 20
159.826111
 11
53.712856
 21
159.826111
  0
LINE
  8
1
 62
7
  6
CONTINUOUS
 10
53.712856
 20
159.826111
 11
53.712856
 21
158.952884
  0
LINE
  8
1
 62
7
  6
CONTINUOUS
 10
53.712856
 20
158.952884
 11
53.160122
 21
158.952884
  0
LINE
  8
1
 62
7
  6
CONTINUOUS
 10
53.160122
 20
158.952884
 11
53.160122
 21
159.826111
  0
LINE
  8
1
 62
7
  6
CONTINUOUS
 10
53.160122
 20
159.826111
 11
53.044002
 21
159.826111
  0
LINE
  8
1
 62
7
  6
CONTINUOUS
 10
53.044002
 20
159.826111
 11
53.044002
 21
158.925015
  0
ARC
  8
1
 62
7
  6
CONTINUOUS
 10
53.136899
 20
158.925015
 40
0.092896
 50
180.000000
 51
-89.988330
  0
LINE
  8
1
 62
7
  6
CONTINUOUS
 10
53.136899
 20
158.832119
 11
53.406298
 21
158.832119
  0
LINE
  8
1
 62
7
  6
CONTINUOUS
 10
53.712856
 20
158.832119
 11
53.712856
 21
158.952884
  0
LINE
  8
1
 62
7
  6
CONTINUOUS
 10
53.406298
 20
158.832119
 11
53.536353
 21
158.952884
  0
ARC
  8
1
 62
7
  6
CONTINUOUS
 10
52.598098
 20
158.925015
 40
0.092896
 50
-89.988330
 51
0.023339
  0
LINE
  8
1
 62
7
  6
CONTINUOUS
 10
52.690995
 20
158.925015
 11
52.690995
 21
159.733215
  0
ARC
  8
1
 62
7
  6
CONTINUOUS
 10
52.598098
 20
159.733215
 40
0.092896
 50
0.023339
 51
89.977713
  0
LINE
  8
1
 62
7
  6
CONTINUOUS
 10
52.598098
 20
159.826111
 11
51.994272
 21
159.826111
  0
ARC
  8
1
 62
7
  6
CONTINUOUS
 10
51.994272
 20
159.733215
 40
0.092896
 50
89.977713
 51
179.989383
  0
LINE
  8
1
 62
7
  6
CONTINUOUS
 10
51.901375
 20
159.733215
 11
51.901375
 21
158.925015
  0
ARC
  8
1
 62
7
  6
CONTINUOUS
 10
51.994272
 20
158.925015
 40
0.092896
 50
180.000000
 51
-89.988330
  0
LINE
  8
1
 62
7
  6
CONTINUOUS
 10
51.994272
 20
158.832119
 11
52.598098
 21
158.832119
  0
LINE
  8
1
 62
7
  6
CONTINUOUS
 10
52.574875
 20
158.952884
 11
52.574875
 21
159.705346
  0
LINE
  8
1
 62
7
  6
CONTINUOUS
 10
52.574875
 20
159.705346
 11
52.022141
 21
159.705346
  0
LINE
  8
1
 62
7
  6
CONTINUOUS
 10
52.022141
 20
159.705346
 11
52.022141
 21
158.952884
  0
LINE
  8
1
 62
7
  6
CONTINUOUS
 10
52.022141
 20
158.952884
 11
52.574875
 21
158.952884
  0
ARC
  8
1
 62
7
  6
CONTINUOUS
 10
50.977055
 20
158.288674
 40
0.162569
 50
-169.973239
 51
-89.988330
  0
LINE
  8
1
 62
7
  6
CONTINUOUS
 10
50.977055
 20
158.126105
 11
51.353286
 21
158.126105
  0
ARC
  8
1
 62
7
  6
CONTINUOUS
 10
51.353286
 20
158.288674
 40
0.162569
 50
-89.988330
 51
0.023339
  0
LINE
  8
1
 62
7
  6
CONTINUOUS
 10
51.515855
 20
158.288674
 11
51.515855
 21
159.826111
  0
LINE
  8
1
 62
7
  6
CONTINUOUS
 10
51.515855
 20
159.826111
 11
51.330062
 21
159.826111
  0
LINE
  8
1
 62
7
  6
CONTINUOUS
 10
51.330062
 20
159.826111
 11
51.330062
 21
158.311898
  0
LINE
  8
1
 62
7
  6
CONTINUOUS
 10
51.330062
 20
158.311898
 11
50.995634
 21
158.311898
  0
LINE
  8
1
 62
7
  6
CONTINUOUS
 10
50.995634
 20
158.311898
 11
50.744814
 21
159.728569
  0
ARC
  8
1
 62
7
  6
CONTINUOUS
 10
50.596179
 20
159.663542
 40
0.162569
 50
23.629200
 51
89.977713
  0
LINE
  8
1
 62
7
  6
CONTINUOUS
 10
50.596179
 20
159.826111
 11
50.438255
 21
159.826111
  0
ARC
  8
1
 62
7
  6
CONTINUOUS
 10
50.438255
 20
159.663542
 40
0.162569
 50
89.977713
 51
170.019917
  0
LINE
  8
1
 62
7
  6
CONTINUOUS
 10
50.280331
 20
159.686766
 11
50.038800
 21
158.311898
  0
LINE
  8
1
 62
7
  6
CONTINUOUS
 10
50.038800
 20
158.311898
 11
49.704373
 21
158.311898
  0
LINE
  8
1
 62
7
  6
CONTINUOUS
 10
49.704373
 20
158.311898
 11
49.704373
 21
159.826111
  0
LINE
  8
1
 62
7
  6
CONTINUOUS
 10
49.704373
 20
159.826111
 11
49.513935
 21
159.826111
  0
LINE
  8
1
 62
7
  6
CONTINUOUS
 10
49.513935
 20
159.826111
 11
49.513935
 21
158.288674
  0
ARC
  8
1
 62
7
  6
CONTINUOUS
 10
49.676504
 20
158.288674
 40
0.162569
 50
180.000000
 51
-89.988330
  0
LINE
  8
1
 62
7
  6
CONTINUOUS
 10
49.676504
 20
158.126105
 11
50.057379
 21
158.126105
  0
ARC
  8
1
 62
7
  6
CONTINUOUS
 10
50.057379
 20
158.288674
 40
0.162569
 50
-89.988330
 51
-10.003422
  0
LINE
  8
1
 62
7
  6
CONTINUOUS
 10
48.947267
 20
158.126105
 11
49.133060
 21
158.126105
  0
LINE
  8
1
 62
7
  6
CONTINUOUS
 10
49.133060
 20
158.126105
 11
49.133060
 21
159.826111
  0
LINE
  8
1
 62
7
  6
CONTINUOUS
 10
49.133060
 20
159.826111
 11
48.947267
 21
159.826111
  0
LINE
  8
1
 62
7
  6
CONTINUOUS
 10
48.947267
 20
159.826111
 11
48.947267
 21
158.126105
  0
LINE
  8
1
 62
7
  6
CONTINUOUS
 10
48.222674
 20
158.126105
 11
48.459560
 21
158.126105
  0
LINE
  8
1
 62
7
  6
CONTINUOUS
 10
48.459560
 20
158.126105
 11
47.725677
 21
159.059715
  0
LINE
  8
1
 62
7
  6
CONTINUOUS
 10
47.725677
 20
159.059715
 11
48.064750
 21
159.635673
  0
LINE
  8
1
 62
7
  6
CONTINUOUS
 10
48.064750
 20
159.635673
 11
48.561746
 21
159.635673
  0
LINE
  8
1
 62
7
  6
CONTINUOUS
 10
48.561746
 20
159.635673
 11
48.561746
 21
159.826111
  0
LINE
  8
1
 62
7
  6
CONTINUOUS
 10
48.561746
 20
159.826111
 11
47.962564
 21
159.826111
  0
LINE
  8
1
 62
7
  6
CONTINUOUS
 10
47.962564
 20
159.826111
 11
46.982505
 21
158.126105
  0
LINE
  8
1
 62
7
  6
CONTINUOUS
 10
46.982505
 20
158.126105
 11
47.196167
 21
158.126105
  0
LINE
  8
1
 62
7
  6
CONTINUOUS
 10
47.196167
 20
158.126105
 11
47.632781
 21
158.883211
  0
LINE
  8
1
 62
7
  6
CONTINUOUS
 10
47.632781
 20
158.883211
 11
48.222674
 21
158.126105
  0
LINE
  8
1
 62
7
  6
CONTINUOUS
 10
46.058186
 20
158.126105
 11
46.406547
 21
158.126105
  0
ARC
  8
1
 62
7
  6
CONTINUOUS
 10
46.406547
 20
158.288674
 40
0.162569
 50
-89.988330
 51
-42.719312
  0
LINE
  8
1
 62
7
  6
CONTINUOUS
 10
46.522668
 20
158.172553
 11
47.479502
 21
159.826111
  0
LINE
  8
1
 62
7
  6
CONTINUOUS
 10
47.479502
 20
159.826111
 11
47.265840
 21
159.826111
  0
LINE
  8
1
 62
7
  6
CONTINUOUS
 10
47.265840
 20
159.826111
 11
46.392613
 21
158.311898
  0
LINE
  8
1
 62
7
  6
CONTINUOUS
 10
46.392613
 20
158.311898
 11
46.086054
 21
158.311898
  0
LINE
  8
1
 62
7
  6
CONTINUOUS
 10
46.086054
 20
158.311898
 11
46.086054
 21
159.635673
  0
LINE
  8
1
 62
7
  6
CONTINUOUS
 10
46.086054
 20
159.635673
 11
46.490154
 21
159.635673
  0
LINE
  8
1
 62
7
  6
CONTINUOUS
 10
46.490154
 20
159.635673
 11
46.490154
 21
159.826111
  0
LINE
  8
1
 62
7
  6
CONTINUOUS
 10
46.490154
 20
159.826111
 11
46.058186
 21
159.826111
  0
ARC
  8
1
 62
7
  6
CONTINUOUS
 10
46.058186
 20
159.663542
 40
0.162569
 50
89.977713
 51
166.754058
  0
LINE
  8
1
 62
7
  6
CONTINUOUS
 10
45.900261
 20
159.700700
 11
45.900261
 21
158.325833
  0
ARC
  8
1
 62
7
  6
CONTINUOUS
 10
46.058186
 20
158.288674
 40
0.162569
 50
166.754058
 51
-89.998948
  0
LINE
  8
1
 62
7
  6
CONTINUOUS
 10
50.628693
 20
159.356984
 11
50.819131
 21
158.260805
  0
LINE
  8
1
 62
7
  6
CONTINUOUS
 10
50.410386
 20
159.347694
 11
50.210659
 21
158.260805
  0
LINE
  8
1
 62
7
  6
CONTINUOUS
 10
50.628693
 20
159.356984
 11
50.517217
 21
159.640318
  0
LINE
  8
1
 62
7
  6
CONTINUOUS
 10
50.517217
 20
159.640318
 11
50.410386
 21
159.347694
  0
LINE
  8
1
 62
7
  6
CONTINUOUS
 10
120.371499
 20
111.217556
 11
120.371499
 21
112.617556
  0
LINE
  8
1
 62
7
  6
CONTINUOUS
 10
120.371499
 20
111.217556
 11
119.774031
 21
111.217556
  0
LINE
  8
1
 62
7
  6
CONTINUOUS
 10
172.398996
 20
150.022071
 11
172.398996
 21
159.822071
  0
LINE
  8
1
 62
7
  6
CONTINUOUS
 10
180.098997
 20
159.022071
 11
180.098997
 21
150.822072
  0
LINE
  8
1
 62
7
  6
CONTINUOUS
 10
172.398996
 20
159.822071
 11
173.298997
 21
159.822071
  0
LINE
  8
1
 62
7
  6
CONTINUOUS
 10
173.298997
 20
159.022071
 11
180.098997
 21
159.022071
  0
LINE
  8
1
 62
7
  6
CONTINUOUS
 10
173.298997
 20
150.822072
 11
180.098997
 21
150.822072
  0
LINE
  8
1
 62
7
  6
CONTINUOUS
 10
172.398996
 20
150.022071
 11
173.298997
 21
150.022071
  0
LINE
  8
1
 62
7
  6
CONTINUOUS
 10
152.398996
 20
156.642071
 11
172.398996
 21
157.872071
  0
LINE
  8
1
 62
7
  6
CONTINUOUS
 10
152.398996
 20
155.742072
 11
172.398996
 21
156.972072
  0
LINE
  8
1
 62
7
  6
CONTINUOUS
 10
152.398996
 20
154.102070
 11
172.398996
 21
152.872071
  0
LINE
  8
1
 62
7
  6
CONTINUOUS
 10
152.398996
 20
153.202071
 11
172.398996
 21
151.972072
  0
LINE
  8
1
 62
7
  6
CONTINUOUS
 10
177.098997
 20
157.922071
 11
177.098997
 21
156.922071
  0
LINE
  8
1
 62
7
  6
CONTINUOUS
 10
177.098997
 20
155.422071
 11
177.098997
 21
154.422071
  0
LINE
  8
1
 62
7
  6
CONTINUOUS
 10
177.098997
 20
152.922071
 11
177.098997
 21
151.922072
  0
LINE
  8
1
 62
7
  6
CONTINUOUS
 10
177.098997
 20
157.890821
 11
180.098997
 21
157.890821
  0
LINE
  8
1
 62
7
  6
CONTINUOUS
 10
177.098997
 20
156.922071
 11
180.098997
 21
156.922071
  0
LINE
  8
1
 62
7
  6
CONTINUOUS
 10
177.098997
 20
155.422071
 11
180.098997
 21
155.422071
  0
LINE
  8
1
 62
7
  6
CONTINUOUS
 10
177.098997
 20
154.422071
 11
180.098997
 21
154.422071
  0
LINE
  8
1
 62
7
  6
CONTINUOUS
 10
177.098997
 20
152.922071
 11
180.098997
 21
152.922071
  0
LINE
  8
1
 62
7
  6
CONTINUOUS
 10
177.098997
 20
151.922072
 11
180.098997
 21
151.922072
  0
LINE
  8
1
 62
7
  6
CONTINUOUS
 10
179.598997
 20
157.890821
 11
179.598997
 21
156.922071
  0
LINE
  8
1
 62
7
  6
CONTINUOUS
 10
179.598997
 20
155.422071
 11
179.598997
 21
154.422071
  0
LINE
  8
1
 62
7
  6
CONTINUOUS
 10
179.598997
 20
152.922071
 11
179.598997
 21
151.922072
  0
LINE
  8
1
 62
7
  6
CONTINUOUS
 10
173.298997
 20
159.822071
 11
173.298997
 21
150.022071
  0
LINE
  8
1
 62
7
  6
CONTINUOUS
 10
129.320774
 20
156.642071
 11
152.398996
 21
156.642071
  0
LINE
  8
1
 62
7
  6
CONTINUOUS
 10
129.932885
 20
155.742072
 11
152.398996
 21
155.742072
  0
LINE
  8
1
 62
7
  6
CONTINUOUS
 10
129.859640
 20
155.372071
 11
172.398996
 21
155.372071
  0
LINE
  8
1
 62
7
  6
CONTINUOUS
 10
128.936425
 20
154.472072
 11
172.398996
 21
154.472072
  0
LINE
  8
1
 62
7
  6
CONTINUOUS
 10
128.827336
 20
154.102070
 11
152.398996
 21
154.102070
  0
LINE
  8
1
 62
7
  6
CONTINUOUS
 10
129.406185
 20
153.202071
 11
152.398996
 21
153.202071
  0
LINE
  8
1
 62
7
  6
CONTINUOUS
 10
126.390996
 20
156.642071
 11
127.820774
 21
156.642071
  0
LINE
  8
1
 62
7
  6
CONTINUOUS
 10
126.390996
 20
155.742072
 11
128.432885
 21
155.742072
  0
LINE
  8
1
 62
7
  6
CONTINUOUS
 10
126.390996
 20
154.472072
 11
127.436425
 21
154.472072
  0
LINE
  8
1
 62
7
  6
CONTINUOUS
 10
126.390996
 20
154.102070
 11
127.327336
 21
154.102070
  0
LINE
  8
1
 62
7
  6
CONTINUOUS
 10
126.390996
 20
153.202071
 11
127.906185
 21
153.202071
  0
LINE
  8
1
 62
7
  6
CONTINUOUS
 10
126.390996
 20
155.372071
 11
128.359640
 21
155.372071
  0
LINE
  8
1
 62
7
  6
CONTINUOUS
 10
117.871499
 20
118.717556
 11
117.374031
 21
121.217556
  0
LINE
  8
1
 62
7
  6
CONTINUOUS
 10
117.374031
 20
121.467556
 11
117.224031
 21
121.467556
  0
LINE
  8
1
 62
7
  6
CONTINUOUS
 10
117.224031
 20
121.467556
 11
117.224031
 21
122.817556
  0
LINE
  8
1
 62
7
  6
CONTINUOUS
 10
117.871499
 20
111.717556
 11
117.871499
 21
118.717556
  0
LINE
  8
1
 62
7
  6
CONTINUOUS
 10
117.221761
 20
122.817556
 11
118.614031
 21
122.817556
  0
LINE
  8
1
 62
7
  6
CONTINUOUS
 10
117.374031
 20
121.467556
 11
117.374031
 21
104.417556
  0
LINE
  8
1
 62
7
  6
CONTINUOUS
 10
119.371499
 20
118.978502
 11
119.371499
 21
112.717556
  0
LINE
  8
1
 62
7
  6
CONTINUOUS
 10
118.614031
 20
122.817556
 11
119.377709
 21
118.979737
  0
LINE
  8
1
 62
7
  6
CONTINUOUS
 10
133.446995
 20
70.517558
 11
127.890995
 21
70.517558
  0
LINE
  8
1
 62
7
  6
CONTINUOUS
 10
122.334995
 20
70.517558
 11
127.890995
 21
70.517558
  0
LINE
  8
1
 62
7
  6
CONTINUOUS
 10
58.446995
 20
70.517558
 11
52.890995
 21
70.517558
  0
LINE
  8
1
 62
7
  6
CONTINUOUS
 10
47.334995
 20
70.517558
 11
52.890995
 21
70.517558
  0
LINE
  8
2
 62
7
  6
CONTINUOUS
 10
57.759995
 20
70.517558
 11
58.446995
 21
72.317558
  0
LINE
  8
2
 62
7
  6
CONTINUOUS
 10
48.021995
 20
70.517558
 11
47.334995
 21
72.317558
  0
LINE
  8
2
 62
7
  6
DASHDOT
 10
52.890995
 20
57.517558
 11
52.890995
 21
114.117556
  0
LINE
  8
2
 62
7
  6
CONTINUOUS
 10
57.763144
 20
158.219001
 11
58.780361
 21
158.219001
  0
LINE
  8
2
 62
7
  6
CONTINUOUS
 10
58.780361
 20
158.219001
 11
58.961509
 21
158.562719
  0
LINE
  8
2
 62
7
  6
CONTINUOUS
 10
58.961509
 20
158.562719
 11
58.473803
 21
159.408076
  0
LINE
  8
2
 62
7
  6
CONTINUOUS
 10
58.473803
 20
159.408076
 11
58.659595
 21
159.728569
  0
LINE
  8
2
 62
7
  6
CONTINUOUS
 10
58.659595
 20
159.728569
 11
59.676812
 21
159.733215
  0
LINE
  8
2
 62
7
  6
CONTINUOUS
 10
57.981451
 20
159.761084
 11
57.089644
 21
158.223647
  0
LINE
  8
2
 62
7
  6
CONTINUOUS
 10
57.089644
 20
158.223647
 11
56.639096
 21
158.223647
  0
LINE
  8
2
 62
7
  6
CONTINUOUS
 10
56.639096
 20
158.223647
 11
56.643741
 21
159.719280
  0
LINE
  8
2
 62
7
  6
CONTINUOUS
 10
56.643741
 20
159.719280
 11
57.061775
 21
159.709990
  0
LINE
  8
2
 62
7
  6
CONTINUOUS
 10
54.832259
 20
158.214357
 11
56.058493
 21
158.209712
  0
LINE
  8
2
 62
7
  6
CONTINUOUS
 10
56.058493
 20
158.209712
 11
56.053849
 21
159.728569
  0
LINE
  8
2
 62
7
  6
CONTINUOUS
 10
56.053849
 20
159.728569
 11
54.892642
 21
159.723925
  0
LINE
  8
2
 62
7
  6
CONTINUOUS
 10
54.892642
 20
159.723925
 11
55.018052
 21
159.041136
  0
LINE
  8
2
 62
7
  6
CONTINUOUS
 10
55.018052
 20
159.041136
 11
55.203845
 21
159.041136
  0
LINE
  8
2
 62
7
  6
CONTINUOUS
 10
54.274880
 20
158.205067
 11
54.274880
 21
159.756438
  0
LINE
  8
2
 62
7
  6
CONTINUOUS
 10
51.441538
 20
159.770373
 11
51.436892
 21
158.246870
  0
LINE
  8
2
 62
7
  6
CONTINUOUS
 10
51.436892
 20
158.246870
 11
50.912027
 21
158.251516
  0
LINE
  8
2
 62
7
  6
CONTINUOUS
 10
50.912027
 20
158.251516
 11
50.628693
 21
159.714635
  0
LINE
  8
2
 62
7
  6
CONTINUOUS
 10
50.628693
 20
159.714635
 11
50.405741
 21
159.714635
  0
LINE
  8
2
 62
7
  6
CONTINUOUS
 10
50.405741
 20
159.714635
 11
50.099183
 21
158.228291
  0
LINE
  8
2
 62
7
  6
CONTINUOUS
 10
50.099183
 20
158.228291
 11
49.597542
 21
158.223647
  0
LINE
  8
2
 62
7
  6
CONTINUOUS
 10
49.597542
 20
158.223647
 11
49.592897
 21
159.756438
  0
LINE
  8
2
 62
7
  6
CONTINUOUS
 10
49.035518
 20
158.205067
 11
49.040163
 21
159.761084
  0
LINE
  8
2
 62
7
  6
CONTINUOUS
 10
48.296991
 20
158.186488
 11
47.632781
 21
159.013267
  0
LINE
  8
2
 62
7
  6
CONTINUOUS
 10
47.126495
 20
158.200422
 11
48.013656
 21
159.714635
  0
LINE
  8
2
 62
7
  6
CONTINUOUS
 10
48.013656
 20
159.714635
 11
48.492073
 21
159.719280
  0
LINE
  8
2
 62
7
  6
CONTINUOUS
 10
47.340157
 20
159.770373
 11
46.443706
 21
158.223647
  0
LINE
  8
2
 62
7
  6
CONTINUOUS
 10
46.443706
 20
158.223647
 11
46.002448
 21
158.228291
  0
LINE
  8
2
 62
7
  6
CONTINUOUS
 10
46.002448
 20
158.228291
 11
45.997802
 21
159.728569
  0
LINE
  8
2
 62
7
  6
CONTINUOUS
 10
45.997802
 20
159.728569
 11
46.448350
 21
159.737859
  0
TEXT
  8
2
 62
7
  6
CONTINUOUS
 10
58.985479
 20
162.398553
 40
2.000000
 41
0.500000
  1
MADE IN JAPAN
  7
KANJI
 50
180.000000
 51
0.000000
  0
TEXT
  8
2
 62
7
  6
CONTINUOUS
 10
55.120682
 20
163.818916
 40
1.500000
 41
0.500000
  1
1 PBT
  7
KANJI
 50
180.000000
 51
0.000000
  0
LINE
  8
2
 62
7
  6
CONTINUOUS
 10
57.759995
 20
62.786553
 11
57.759995
 21
70.517558
  0
LINE
  8
2
 62
7
  6
CONTINUOUS
 10
48.021995
 20
62.786553
 11
48.021995
 21
70.517558
  0
LINE
  8
2
 62
7
  6
DASHDOT
 10
119.474030
 20
104.117555
 11
119.774031
 21
104.417556
  0
LINE
  8
2
 62
7
  6
CONTINUOUS
 10
132.759995
 20
70.517558
 11
133.446995
 21
72.317558
  0
LINE
  8
2
 62
7
  6
CONTINUOUS
 10
123.021995
 20
70.517558
 11
122.334995
 21
72.317558
  0
LINE
  8
2
 62
7
  6
DASHDOT
 10
127.890995
 20
57.517558
 11
127.890995
 21
114.117556
  0
LINE
  8
2
 62
7
  6
CONTINUOUS
 10
132.759995
 20
62.786553
 11
132.759995
 21
70.517558
  0
LINE
  8
2
 62
7
  6
CONTINUOUS
 10
123.021995
 20
62.786553
 11
123.021995
 21
70.517558
  0
TEXT
  8
2
 62
7
  6
CONTINUOUS
 10
57.740995
 20
157.854124
 40
1.400000
 41
0.500000
  1
1
  7
KANJI
 50
180.000000
 51
0.000000
  0
TEXT
  8
2
 62
7
  6
CONTINUOUS
 10
53.236383
 20
157.887584
 40
1.400000
 41
0.500000
  1
2
  7
KANJI
 50
180.000000
 51
0.000000
  0
TEXT
  8
2
 62
7
  6
CONTINUOUS
 10
48.748119
 20
157.903464
 40
1.400000
 41
0.500000
  1
3
  7
KANJI
 50
180.000000
 51
0.000000
  0
ARC
  8
2
 62
7
  6
DASHDOT
 10
42.540995
 20
84.117558
 40
0.500000
 50
0.000000
 51
90.000000
  0
ARC
  8
2
 62
7
  6
DASHDOT
 10
63.240996
 20
84.117558
 40
0.500000
 50
90.000000
 51
180.000000
  0
ARC
  8
2
 62
7
  6
HIDDEN
 10
135.740996
 20
81.317558
 40
2.000000
 50
-90.000000
 51
0.000000
  0
ARC
  8
2
 62
7
  6
HIDDEN
 10
138.240996
 20
84.117558
 40
0.500000
 50
90.000000
 51
180.000000
  0
LINE
  8
2
 62
7
  6
HIDDEN
 10
137.740996
 20
81.317558
 11
137.740996
 21
84.117558
  0
LINE
  8
2
 62
7
  6
HIDDEN
 10
141.190995
 20
84.617558
 11
141.190995
 21
91.126385
  0
LINE
  8
2
 62
7
  6
HIDDEN
 10
117.234181
 20
93.317558
 11
138.634182
 21
93.317558
  0
LINE
  8
2
 62
7
  6
HIDDEN
 10
138.634182
 20
93.317558
 11
141.136125
 21
91.417558
  0
ARC
  8
2
 62
7
  6
HIDDEN
 10
140.390995
 20
91.126385
 40
0.800001
 50
0.000000
 51
21.343962
  0
ARC
  8
2
 62
7
  6
HIDDEN
 10
137.371498
 20
96.617558
 40
0.500000
 50
0.000000
 51
90.000000
  0
LINE
  8
2
 62
7
  6
HIDDEN
 10
135.871498
 20
97.117558
 11
137.371498
 21
97.117558
  0
LINE
  8
2
 62
7
  6
HIDDEN
 10
137.890995
 20
96.617558
 11
137.890995
 21
93.317558
  0
LINE
  8
2
 62
7
  6
HIDDEN
 10
135.890995
 20
93.317558
 11
137.890995
 21
93.317558
  0
LINE
  8
2
 62
7
  6
HIDDEN
 10
135.890995
 20
91.417558
 11
141.136125
 21
91.417558
  0
LINE
  8
2
 62
7
  6
HIDDEN
 10
135.890995
 20
84.617558
 11
141.190995
 21
84.617558
  0
LINE
  8
2
 62
7
  6
HIDDEN
 10
42.234181
 20
98.417558
 11
42.234181
 21
93.317558
  0
LINE
  8
2
 62
7
  6
HIDDEN
 10
63.634181
 20
98.417558
 11
63.634181
 21
93.317558
  0
LINE
  8
2
 62
7
  6
HIDDEN
 10
43.040995
 20
84.117558
 11
43.040995
 21
81.317558
  0
LINE
  8
2
 62
7
  6
HIDDEN
 10
62.740996
 20
81.317558
 11
62.740996
 21
84.117558
  0
ARC
  8
2
 62
7
  6
HIDDEN
 10
45.040995
 20
81.317558
 40
2.000000
 50
-180.000000
 51
-124.077184
  0
ARC
  8
2
 62
7
  6
HIDDEN
 10
60.740996
 20
81.317558
 40
2.000000
 50
-55.922816
 51
0.000000
  0
LINE
  8
2
 62
7
  6
DASHDOT
 10
81.890995
 20
95.672071
 11
81.890995
 21
84.617558
  0
LINE
  8
2
 62
7
  6
DASHDOT
 10
23.890995
 20
95.672071
 11
23.890995
 21
84.617558
  0
LINE
  8
2
 62
7
  6
DASHDOT
 10
18.352058
 20
89.017558
 11
87.669748
 21
89.017558
  0
LINE
  8
3
 62
7
  6
CONTINUOUS
 10
43.040995
 20
47.671231
 11
62.740996
 21
47.671231
  0
LINE
  8
3
 62
7
  6
CONTINUOUS
 10
43.040995
 20
45.671231
 11
43.040995
 21
79.117558
  0
LINE
  8
3
 62
7
  6
CONTINUOUS
 10
62.740996
 20
45.671231
 11
62.740996
 21
79.117558
  0
LINE
  8
3
 62
7
  6
CONTINUOUS
 10
43.040995
 20
47.671231
 11
45.938772
 21
48.447688
  0
LINE
  8
3
 62
7
  6
CONTINUOUS
 10
43.040995
 20
47.671231
 11
45.938772
 21
46.894774
  0
LINE
  8
3
 62
7
  6
CONTINUOUS
 10
62.740996
 20
47.671231
 11
59.843219
 21
46.894774
  0
LINE
  8
3
 62
7
  6
CONTINUOUS
 10
62.740996
 20
47.671231
 11
59.843219
 21
48.447688
  0
TEXT
  8
3
 62
7
  6
CONTINUOUS
 10
46.890995
 20
47.671231
 40
4.000000
 41
1.000000
  1
(φ20)
  7
KANJI
 50
0.000000
 51
0.000000
  0
LINE
  8
3
 62
7
  6
CONTINUOUS
 10
32.934180
 20
165.144484
 11
32.934180
 21
149.026432
  0
LINE
  8
3
 62
7
  6
CONTINUOUS
 10
30.934180
 20
165.144484
 11
48.403178
 21
165.144484
  0
LINE
  8
3
 62
7
  6
CONTINUOUS
 10
30.934180
 20
149.026432
 11
48.700498
 21
149.026432
  0
LINE
  8
3
 62
7
  6
CONTINUOUS
 10
32.934180
 20
165.144484
 11
33.710637
 21
162.246707
  0
LINE
  8
3
 62
7
  6
CONTINUOUS
 10
32.934180
 20
165.144484
 11
32.157723
 21
162.246707
  0
LINE
  8
3
 62
7
  6
CONTINUOUS
 10
32.934180
 20
149.026432
 11
32.157723
 21
151.924209
  0
LINE
  8
3
 62
7
  6
CONTINUOUS
 10
32.934180
 20
149.026432
 11
33.710637
 21
151.924209
  0
TEXT
  8
3
 62
7
  6
CONTINUOUS
 10
32.934180
 20
155.085458
 40
4.000000
 41
0.500000
  1
16
  7
KANJI
 50
90.000000
 51
0.000000
  0
LINE
  8
3
 62
7
  6
CONTINUOUS
 10
143.371499
 20
113.117556
 11
143.371499
 21
126.117555
  0
LINE
  8
3
 62
7
  6
CONTINUOUS
 10
145.371499
 20
113.117556
 11
136.871498
 21
113.117556
  0
LINE
  8
3
 62
7
  6
CONTINUOUS
 10
145.371499
 20
126.117555
 11
129.371499
 21
126.117555
  0
LINE
  8
3
 62
7
  6
CONTINUOUS
 10
143.371499
 20
113.117556
 11
142.595042
 21
116.015334
  0
LINE
  8
3
 62
7
  6
CONTINUOUS
 10
143.371499
 20
113.117556
 11
144.147956
 21
116.015334
  0
LINE
  8
3
 62
7
  6
CONTINUOUS
 10
143.371499
 20
126.117555
 11
144.147956
 21
123.219778
  0
LINE
  8
3
 62
7
  6
CONTINUOUS
 10
143.371499
 20
126.117555
 11
142.595042
 21
123.219778
  0
TEXT
  8
3
 62
7
  6
CONTINUOUS
 10
142.371499
 20
118.017557
 40
3.500000
 41
0.500000
  1
13
  7
KANJI
 50
90.000000
 51
0.000000
  0
LINE
  8
3
 62
7
  6
CONTINUOUS
 10
99.955576
 20
101.017558
 11
99.955576
 21
77.017558
  0
LINE
  8
3
 62
7
  6
CONTINUOUS
 10
101.955576
 20
101.017558
 11
73.390995
 21
101.017558
  0
LINE
  8
3
 62
7
  6
CONTINUOUS
 10
101.955576
 20
77.017558
 11
73.390995
 21
77.017558
  0
LINE
  8
3
 62
7
  6
CONTINUOUS
 10
99.955576
 20
101.017558
 11
100.732033
 21
98.119781
  0
LINE
  8
3
 62
7
  6
CONTINUOUS
 10
99.955576
 20
101.017558
 11
99.179118
 21
98.119781
  0
LINE
  8
3
 62
7
  6
CONTINUOUS
 10
99.955576
 20
77.017558
 11
99.179118
 21
79.915336
  0
LINE
  8
3
 62
7
  6
CONTINUOUS
 10
99.955576
 20
77.017558
 11
100.732033
 21
79.915336
  0
TEXT
  8
3
 62
7
  6
CONTINUOUS
 10
99.955576
 20
87.017558
 40
4.000000
 41
0.500000
  1
24
  7
KANJI
 50
90.000000
 51
0.000000
  0
LINE
  8
3
 62
7
  6
CONTINUOUS
 10
19.390995
 20
34.372071
 11
86.390995
 21
34.372071
  0
LINE
  8
3
 62
7
  6
CONTINUOUS
 10
19.390995
 20
32.372071
 11
19.390995
 21
81.459076
  0
LINE
  8
3
 62
7
  6
CONTINUOUS
 10
86.390995
 20
32.372071
 11
86.390995
 21
81.459076
  0
LINE
  8
3
 62
7
  6
CONTINUOUS
 10
19.390995
 20
34.372071
 11
22.288773
 21
35.148528
  0
LINE
  8
3
 62
7
  6
CONTINUOUS
 10
19.390995
 20
34.372071
 11
22.288773
 21
33.595614
  0
LINE
  8
3
 62
7
  6
CONTINUOUS
 10
86.390995
 20
34.372071
 11
83.493218
 21
33.595614
  0
LINE
  8
3
 62
7
  6
CONTINUOUS
 10
86.390995
 20
34.372071
 11
83.493218
 21
35.148528
  0
TEXT
  8
3
 62
7
  6
CONTINUOUS
 10
50.890995
 20
34.372071
 40
4.000000
 41
0.500000
  1
67
  7
KANJI
 50
0.000000
 51
0.000000
  0
LINE
  8
3
 62
7
  6
CONTINUOUS
 10
110.171535
 20
126.117555
 11
117.762850
 21
126.117555
  0
LINE
  8
3
 62
7
  6
CONTINUOUS
 10
172.398996
 20
161.470234
 11
172.398996
 21
167.621817
  0
LINE
  8
3
 62
7
  6
CONTINUOUS
 10
172.398996
 20
164.218814
 11
119.551286
 21
164.218814
  0
LINE
  8
3
 62
7
  6
CONTINUOUS
 10
114.098077
 20
158.765605
 11
114.098077
 21
126.117555
  0
ARC
  8
3
 62
7
  6
CONTINUOUS
 10
119.551286
 20
158.765605
 40
5.453209
 50
90.000001
 51
179.999999
  0
LINE
  8
3
 62
7
  6
CONTINUOUS
 10
114.764043
 20
128.602974
 11
114.098077
 21
126.117555
  0
LINE
  8
3
 62
7
  6
CONTINUOUS
 10
113.427398
 20
128.620566
 11
114.098077
 21
126.117553
  0
LINE
  8
3
 62
7
  6
CONTINUOUS
 10
169.898996
 20
163.548941
 11
172.398996
 21
164.218814
  0
LINE
  8
3
 62
7
  6
CONTINUOUS
 10
172.398996
 20
164.218814
 11
169.898996
 21
164.888686
  0
LINE
  8
3
 62
7
  6
CONTINUOUS
 10
141.890995
 20
42.372071
 11
127.890995
 21
42.372071
  0
LINE
  8
3
 62
7
  6
CONTINUOUS
 10
141.890995
 20
40.372071
 11
141.890995
 21
75.017558
  0
LINE
  8
3
 62
7
  6
CONTINUOUS
 10
127.890995
 20
40.372071
 11
127.890995
 21
56.817558
  0
LINE
  8
3
 62
7
  6
CONTINUOUS
 10
141.890995
 20
42.372071
 11
138.993218
 21
41.595614
  0
LINE
  8
3
 62
7
  6
CONTINUOUS
 10
141.890995
 20
42.372071
 11
138.993218
 21
43.148528
  0
LINE
  8
3
 62
7
  6
CONTINUOUS
 10
127.890995
 20
42.372071
 11
130.788773
 21
43.148528
  0
LINE
  8
3
 62
7
  6
CONTINUOUS
 10
127.890995
 20
42.372071
 11
130.788773
 21
41.595614
  0
TEXT
  8
3
 62
7
  6
CONTINUOUS
 10
132.890995
 20
42.372071
 40
4.000000
 41
0.500000
  1
14
  7
KANJI
 50
0.000000
 51
0.000000
  0
LINE
  8
3
 62
7
  6
CONTINUOUS
 10
146.890995
 20
49.049189
 11
130.890995
 21
49.049189
  0
LINE
  8
3
 62
7
  6
CONTINUOUS
 10
141.890995
 20
47.049189
 11
141.890995
 21
75.017558
  0
LINE
  8
3
 62
7
  6
CONTINUOUS
 10
135.890995
 20
47.049189
 11
135.890995
 21
75.017558
  0
LINE
  8
3
 62
7
  6
CONTINUOUS
 10
141.890995
 20
49.049189
 11
144.788773
 21
49.825646
  0
LINE
  8
3
 62
7
  6
CONTINUOUS
 10
141.890995
 20
49.049189
 11
144.788773
 21
48.272732
  0
LINE
  8
3
 62
7
  6
CONTINUOUS
 10
135.890995
 20
49.049189
 11
132.993218
 21
48.272732
  0
LINE
  8
3
 62
7
  6
CONTINUOUS
 10
135.890995
 20
49.049189
 11
132.993218
 21
49.825646
  0
TEXT
  8
3
 62
7
  6
CONTINUOUS
 10
137.890995
 20
49.049189
 40
4.000000
 41
0.500000
  1
6
  7
KANJI
 50
0.000000
 51
0.000000
  0
LINE
  8
3
 62
7
  6
CONTINUOUS
 10
66.190995
 20
128.873644
 11
39.590996
 21
128.873644
  0
LINE
  8
3
 62
7
  6
CONTINUOUS
 10
66.190995
 20
130.873644
 11
66.190995
 21
93.126385
  0
LINE
  8
3
 62
7
  6
CONTINUOUS
 10
39.590996
 20
130.873644
 11
39.590996
 21
93.126382
  0
LINE
  8
3
 62
7
  6
CONTINUOUS
 10
66.190995
 20
128.873644
 11
63.293218
 21
128.097187
  0
LINE
  8
3
 62
7
  6
CONTINUOUS
 10
66.190995
 20
128.873644
 11
63.293218
 21
129.650101
  0
LINE
  8
3
 62
7
  6
CONTINUOUS
 10
39.590996
 20
128.873644
 11
42.488773
 21
129.650101
  0
LINE
  8
3
 62
7
  6
CONTINUOUS
 10
39.590996
 20
128.873644
 11
42.488773
 21
128.097187
  0
TEXT
  8
3
 62
7
  6
CONTINUOUS
 10
46.890995
 20
128.873644
 40
4.000000
 41
1.000000
  1
φ26.6
  7
KANJI
 50
0.000000
 51
0.000000
  0
LINE
  8
3
 62
7
  6
CONTINUOUS
 10
42.234181
 20
120.195493
 11
63.634181
 21
120.195493
  0
LINE
  8
3
 62
7
  6
CONTINUOUS
 10
42.234181
 20
122.195493
 11
42.234181
 21
114.617556
  0
LINE
  8
3
 62
7
  6
CONTINUOUS
 10
63.634181
 20
122.195493
 11
63.634181
 21
114.617556
  0
LINE
  8
3
 62
7
  6
CONTINUOUS
 10
42.234181
 20
120.195493
 11
45.131958
 21
120.971950
  0
LINE
  8
3
 62
7
  6
CONTINUOUS
 10
42.234181
 20
120.195493
 11
45.131958
 21
119.419036
  0
LINE
  8
3
 62
7
  6
CONTINUOUS
 10
63.634181
 20
120.195493
 11
60.736403
 21
119.419036
  0
LINE
  8
3
 62
7
  6
CONTINUOUS
 10
63.634181
 20
120.195493
 11
60.736403
 21
120.971950
  0
TEXT
  8
3
 62
7
  6
CONTINUOUS
 10
46.934181
 20
120.195493
 40
4.000000
 41
1.000000
  1
φ21.4
  7
KANJI
 50
0.000000
 51
0.000000
  0
LINE
  8
3
 62
7
  6
CONTINUOUS
 10
11.890996
 20
113.117556
 11
11.890996
 21
58.817558
  0
LINE
  8
3
 62
7
  6
CONTINUOUS
 10
9.890996
 20
113.117556
 11
40.734181
 21
113.117556
  0
LINE
  8
3
 62
7
  6
CONTINUOUS
 10
9.890996
 20
58.817558
 11
48.140997
 21
58.817558
  0
LINE
  8
3
 62
7
  6
CONTINUOUS
 10
11.890996
 20
113.117556
 11
12.667453
 21
110.219779
  0
LINE
  8
3
 62
7
  6
CONTINUOUS
 10
11.890996
 20
113.117556
 11
11.114539
 21
110.219779
  0
LINE
  8
3
 62
7
  6
CONTINUOUS
 10
11.890996
 20
58.817558
 11
11.114539
 21
61.715335
  0
LINE
  8
3
 62
7
  6
CONTINUOUS
 10
11.890996
 20
58.817558
 11
12.667453
 21
61.715335
  0
TEXT
  8
3
 62
7
  6
CONTINUOUS
 10
11.890996
 20
79.967557
 40
4.000000
 41
0.500000
  1
(54.3)
  7
KANJI
 50
90.000000
 51
0.000000
  0
LINE
  8
3
 62
7
  6
CONTINUOUS
 10
23.890995
 20
40.872071
 11
81.890995
 21
40.872071
  0
LINE
  8
3
 62
7
  6
CONTINUOUS
 10
23.890995
 20
38.872071
 11
23.890995
 21
84.767558
  0
LINE
  8
3
 62
7
  6
CONTINUOUS
 10
81.890995
 20
38.872071
 11
81.890995
 21
84.767558
  0
LINE
  8
3
 62
7
  6
CONTINUOUS
 10
23.890995
 20
40.872071
 11
26.788773
 21
41.648528
  0
LINE
  8
3
 62
7
  6
CONTINUOUS
 10
23.890995
 20
40.872071
 11
26.788773
 21
40.095614
  0
LINE
  8
3
 62
7
  6
CONTINUOUS
 10
81.890995
 20
40.872071
 11
78.993218
 21
40.095614
  0
LINE
  8
3
 62
7
  6
CONTINUOUS
 10
81.890995
 20
40.872071
 11
78.993218
 21
41.648528
  0
TEXT
  8
3
 62
7
  6
CONTINUOUS
 10
45.890995
 20
40.872071
 40
4.000000
 41
1.000000
  1
58±0.5
  7
KANJI
 50
0.000000
 51
0.000000
  0
TEXT
  8
3
 62
7
  6
CONTINUOUS
 10
137.390996
 20
164.872071
 40
4.000000
 41
1.000000
  1
1300±50
  7
KANJI
 50
0.000000
 51
0.000000
  0
LINE
  8
3
 62
7
  6
CONTINUOUS
 10
121.490995
 20
77.053095
 11
113.436357
 21
69.288192
  0
LINE
  8
3
 62
7
  6
CONTINUOUS
 10
113.436357
 20
69.288192
 11
105.208006
 21
69.288192
  0
TEXT
  8
3
 62
7
  6
CONTINUOUS
 10
105.208006
 20
69.670184
 40
3.500000
 41
0.500000
  1
HEX12
  7
KANJI
 50
0.000000
 51
0.000000
  0
LINE
  8
3
 62
7
  6
CONTINUOUS
 10
121.490995
 20
77.053095
 11
119.943671
 21
74.482922
  0
LINE
  8
3
 62
7
  6
CONTINUOUS
 10
121.490995
 20
77.053095
 11
118.865887
 21
75.600922
  0
LINE
  8
3
 62
7
  6
CONTINUOUS
 10
122.334995
 20
68.830572
 11
115.292116
 21
61.155106
  0
LINE
  8
3
 62
7
  6
CONTINUOUS
 10
115.292116
 20
61.155106
 11
87.390995
 21
61.155106
  0
TEXT
  8
3
 62
7
  6
CONTINUOUS
 10
87.390995
 20
60.872071
 40
3.500000
 41
1.000000
  1
7/16-20UNFフレア
  7
KANJI
 50
0.000000
 51
0.000000
  0
LINE
  8
3
 62
7
  6
CONTINUOUS
 10
122.334995
 20
68.830572
 11
120.947940
 21
66.170483
  0
LINE
  8
3
 62
7
  6
CONTINUOUS
 10
122.334995
 20
68.830572
 11
119.803725
 21
67.220395
  0
LINE
  8
3
 62
7
  6
CONTINUOUS
 10
173.298997
 20
150.022071
 11
186.994898
 21
137.803074
  0
LINE
  8
3
 62
7
  6
CONTINUOUS
 10
186.994898
 20
137.803074
 11
199.619898
 21
137.803074
  0
TEXT
  8
3
 62
7
  6
CONTINUOUS
 10
190.869898
 20
137.803074
 40
3.500000
 41
0.500000
  1
XHP-3
  7
KANJI
 50
0.000000
 51
0.000000
  0
LINE
  8
3
 62
7
  6
CONTINUOUS
 10
173.298997
 20
150.022071
 11
175.978211
 21
148.672327
  0
LINE
  8
3
 62
7
  6
CONTINUOUS
 10
173.298997
 20
150.022071
 11
174.944393
 21
147.513551
  0
LINE
  8
3
 62
7
  6
CONTINUOUS
 10
199.619779
 20
137.802960
 11
213.729130
 21
137.802960
  0
LINE
  8
3
 62
7
  6
CONTINUOUS
 10
83.497245
 20
90.593141
 11
94.890996
 21
106.872071
  0
LINE
  8
3
 62
7
  6
CONTINUOUS
 10
94.890996
 20
106.872071
 11
111.765996
 21
106.872071
  0
TEXT
  8
3
 62
7
  6
CONTINUOUS
 10
96.015996
 20
106.872071
 40
3.500000
 41
1.000000
  1
穴径φ4.5
  7
KANJI
 50
0.000000
 51
0.000000
  0
LINE
  8
3
 62
7
  6
CONTINUOUS
 10
83.497245
 20
90.593141
 11
84.522738
 21
93.412425
  0
LINE
  8
3
 62
7
  6
CONTINUOUS
 10
83.497245
 20
90.593141
 11
85.794990
 21
92.521966
  0
TEXT
  8
3
 62
7
  6
CONTINUOUS
 10
188.475487
 20
133.197717
 40
3.500000
 41
1.000000
  1
(日本圧着端子製)
  7
KANJI
 50
0.000000
 51
0.000000
  0
LINE
  8
1
 62
7
  6
CONTINUOUS
 10
175.252923
 20
84.617558
 11
201.852922
 21
84.617558
  0
ARC
  8
1
 62
7
  6
CONTINUOUS
 10
180.702922
 20
81.317558
 40
2.000000
 50
-180.000000
 51
-90.000000
  0
ARC
  8
1
 62
7
  6
CONTINUOUS
 10
196.402923
 20
81.317558
 40
2.000000
 50
-90.000000
 51
0.000000
  0
LINE
  8
1
 62
7
  6
CONTINUOUS
 10
180.702922
 20
79.317558
 11
196.402923
 21
79.317558
  0
LINE
  8
1
 62
7
  6
CONTINUOUS
 10
201.852922
 20
84.617558
 11
201.852922
 21
91.126385
  0
LINE
  8
1
 62
7
  6
CONTINUOUS
 10
175.307794
 20
91.417558
 11
201.798053
 21
91.417558
  0
ARC
  8
1
 62
7
  6
CONTINUOUS
 10
178.202922
 20
84.117558
 40
0.500000
 50
0.000000
 51
90.000000
  0
LINE
  8
1
 62
7
  6
CONTINUOUS
 10
178.702922
 20
84.117558
 11
178.702922
 21
81.317558
  0
ARC
  8
1
 62
7
  6
CONTINUOUS
 10
198.902923
 20
84.117558
 40
0.500000
 50
90.000000
 51
180.000000
  0
LINE
  8
1
 62
7
  6
CONTINUOUS
 10
198.402923
 20
81.317558
 11
198.402923
 21
84.117558
  0
LINE
  8
1
 62
7
  6
CONTINUOUS
 10
175.252923
 20
91.126382
 11
175.252923
 21
84.617558
  0
LINE
  8
1
 62
7
  6
CONTINUOUS
 10
177.896108
 20
93.317558
 11
199.296109
 21
93.317558
  0
LINE
  8
1
 62
7
  6
CONTINUOUS
 10
199.296109
 20
93.317558
 11
201.798052
 21
91.417558
  0
LINE
  8
1
 62
7
  6
CONTINUOUS
 10
175.307794
 20
91.417558
 11
177.896108
 21
93.317558
  0
ARC
  8
1
 62
7
  6
CONTINUOUS
 10
201.052922
 20
91.126385
 40
0.800001
 50
0.000000
 51
21.343962
  0
ARC
  8
1
 62
7
  6
CONTINUOUS
 10
176.052923
 20
91.126382
 40
0.800001
 50
158.655797
 51
180.000000
  0
ARC
  8
1
 62
7
  6
CONTINUOUS
 10
198.796108
 20
112.617556
 40
0.500000
 50
0.000000
 51
90.000000
  0
ARC
  8
1
 62
7
  6
CONTINUOUS
 10
178.396108
 20
112.617556
 40
0.500000
 50
90.000000
 51
180.000000
  0
LINE
  8
1
 62
7
  6
CONTINUOUS
 10
199.296108
 20
112.617556
 11
199.296108
 21
93.317558
  0
LINE
  8
1
 62
7
  6
CONTINUOUS
 10
177.896108
 20
112.617556
 11
177.896108
 21
93.317558
  0
LINE
  8
1
 62
7
  6
CONTINUOUS
 10
178.396108
 20
113.117556
 11
198.796108
 21
113.117556
  0
LINE
  8
1
 62
7
  6
CONTINUOUS
 10
197.202923
 20
113.117556
 11
197.202923
 21
97.117558
  0
LINE
  8
1
 62
7
  6
CONTINUOUS
 10
179.902923
 20
113.117556
 11
179.902923
 21
97.117558
  0
LINE
  8
1
 62
7
  6
CONTINUOUS
 10
179.902923
 20
97.117558
 11
197.202923
 21
97.117558
  0
LINE
  8
1
 62
7
  6
CONTINUOUS
 10
182.142099
 20
78.930434
 11
182.986099
 21
79.317558
  0
LINE
  8
1
 62
7
  6
CONTINUOUS
 10
194.963748
 20
78.930434
 11
194.119748
 21
79.317558
  0
LINE
  8
1
 62
7
  6
CONTINUOUS
 10
188.552923
 20
58.817558
 11
191.302921
 21
58.817558
  0
LINE
  8
1
 62
7
  6
CONTINUOUS
 10
194.108923
 20
72.317558
 11
188.552923
 21
72.317558
  0
LINE
  8
1
 62
7
  6
CONTINUOUS
 10
194.108923
 20
70.517558
 11
188.552923
 21
70.517558
  0
LINE
  8
1
 62
7
  6
CONTINUOUS
 10
182.996923
 20
72.317558
 11
188.552923
 21
72.317558
  0
LINE
  8
1
 62
7
  6
CONTINUOUS
 10
182.996923
 20
70.517558
 11
188.552923
 21
70.517558
  0
ARC
  8
1
 62
7
  6
CONTINUOUS
 10
193.352923
 20
75.817558
 40
3.500000
 50
62.797106
 51
117.202894
  0
ARC
  8
1
 62
7
  6
CONTINUOUS
 10
183.752923
 20
75.817558
 40
3.500000
 50
62.797106
 51
117.202894
  0
ARC
  8
1
 62
7
  6
CONTINUOUS
 10
188.552923
 20
68.817558
 40
10.500000
 50
72.486071
 51
107.743840
  0
LINE
  8
1
 62
7
  6
CONTINUOUS
 10
182.152923
 20
78.930434
 11
182.996923
 21
79.317558
  0
LINE
  8
1
 62
7
  6
CONTINUOUS
 10
194.974572
 20
78.930434
 11
194.130572
 21
79.317558
  0
LINE
  8
1
 62
7
  6
CONTINUOUS
 10
193.152923
 20
60.667558
 11
193.152923
 21
62.517558
  0
LINE
  8
1
 62
7
  6
CONTINUOUS
 10
191.302921
 20
58.817558
 11
193.152922
 21
60.667559
  0
LINE
  8
1
 62
7
  6
CONTINUOUS
 10
188.552923
 20
60.667558
 11
193.152921
 21
60.667558
  0
LINE
  8
1
 62
7
  6
CONTINUOUS
 10
188.552923
 20
62.517558
 11
193.152923
 21
62.517558
  0
LINE
  8
1
 62
7
  6
CONTINUOUS
 10
194.108923
 20
63.473553
 11
194.108923
 21
72.317558
  0
LINE
  8
1
 62
7
  6
CONTINUOUS
 10
194.108923
 20
63.473553
 11
188.552923
 21
63.473553
  0
LINE
  8
1
 62
7
  6
CONTINUOUS
 10
193.152923
 20
62.517553
 11
194.108923
 21
63.473553
  0
LINE
  8
1
 62
7
  6
CONTINUOUS
 10
194.952923
 20
78.930434
 11
194.952923
 21
73.161558
  0
LINE
  8
1
 62
7
  6
CONTINUOUS
 10
194.108923
 20
72.317558
 11
194.952923
 21
73.161558
  0
ARC
  8
1
 62
7
  6
CONTINUOUS
 10
188.552923
 20
78.805903
 40
6.488346
 50
-119.550597
 51
-60.449403
  0
LINE
  8
1
 62
7
  6
CONTINUOUS
 10
191.752923
 20
78.930434
 11
191.752923
 21
73.161558
  0
LINE
  8
1
 62
7
  6
CONTINUOUS
 10
185.352923
 20
78.930434
 11
185.352923
 21
73.161558
  0
LINE
  8
1
 62
7
  6
CONTINUOUS
 10
188.552923
 20
58.817558
 11
185.802924
 21
58.817558
  0
LINE
  8
1
 62
7
  6
CONTINUOUS
 10
183.952922
 20
60.667558
 11
183.952923
 21
62.517558
  0
LINE
  8
1
 62
7
  6
CONTINUOUS
 10
185.802924
 20
58.817558
 11
183.952923
 21
60.667559
  0
LINE
  8
1
 62
7
  6
CONTINUOUS
 10
188.552923
 20
60.667558
 11
183.952924
 21
60.667558
  0
LINE
  8
1
 62
7
  6
CONTINUOUS
 10
188.552923
 20
62.517558
 11
183.952923
 21
62.517558
  0
LINE
  8
1
 62
7
  6
CONTINUOUS
 10
182.996923
 20
63.473553
 11
182.996923
 21
72.317558
  0
LINE
  8
1
 62
7
  6
CONTINUOUS
 10
182.996923
 20
63.473553
 11
188.552923
 21
63.473553
  0
LINE
  8
1
 62
7
  6
CONTINUOUS
 10
183.952923
 20
62.517553
 11
182.996923
 21
63.473553
  0
LINE
  8
1
 62
7
  6
CONTINUOUS
 10
182.152923
 20
78.930434
 11
182.152923
 21
73.161558
  0
LINE
  8
1
 62
7
  6
CONTINUOUS
 10
182.996923
 20
72.317558
 11
182.152923
 21
73.161558
  0
ARC
  8
1
 62
7
  6
CONTINUOUS
 10
193.352922
 20
74.255724
 40
1.938349
 50
-145.633597
 51
-55.633498
  0
ARC
  8
1
 62
7
  6
CONTINUOUS
 10
183.752923
 20
74.255724
 40
1.938349
 50
-124.366502
 51
-34.366403
  0
LINE
  8
1
 62
7
  6
CONTINUOUS
 10
194.108923
 20
70.517558
 11
188.552923
 21
70.517558
  0
LINE
  8
1
 62
7
  6
CONTINUOUS
 10
182.996923
 20
70.517558
 11
188.552923
 21
70.517558
  0
ARC
  8
2
 62
7
  6
DOT
 10
183.151998
 20
112.117556
 40
0.500000
 50
90.000000
 51
180.000000
  0
LINE
  8
2
 62
7
  6
DOT
 10
182.651998
 20
112.117556
 11
182.651998
 21
98.117556
  0
ARC
  8
2
 62
7
  6
DOT
 10
183.151998
 20
98.117556
 40
0.500000
 50
180.000000
 51
-90.000000
  0
LINE
  8
2
 62
7
  6
DOT
 10
183.151998
 20
97.617556
 11
194.151998
 21
97.617556
  0
ARC
  8
2
 62
7
  6
DOT
 10
194.151998
 20
98.117556
 40
0.500000
 50
-90.000000
 51
0.000000
  0
LINE
  8
2
 62
7
  6
DOT
 10
194.651998
 20
98.117556
 11
194.651998
 21
112.117556
  0
LINE
  8
2
 62
7
  6
DOT
 10
194.151998
 20
112.617556
 11
183.151998
 21
112.617556
  0
ARC
  8
2
 62
7
  6
DOT
 10
194.151998
 20
112.117556
 40
0.500000
 50
0.000000
 51
90.000000
  0
LINE
  8
2
 62
7
  6
DASHDOT
 10
188.552923
 20
57.517558
 11
188.552923
 21
114.117556
  0
LINE
  8
2
 62
7
  6
CONTINUOUS
 10
193.421923
 20
70.517558
 11
194.108923
 21
72.317558
  0
LINE
  8
2
 62
7
  6
CONTINUOUS
 10
183.683923
 20
70.517558
 11
182.996923
 21
72.317558
  0
LINE
  8
2
 62
7
  6
DASHDOT
 10
188.552923
 20
57.517558
 11
188.552923
 21
114.117556
  0
LINE
  8
2
 62
7
  6
CONTINUOUS
 10
193.421923
 20
62.786553
 11
193.421923
 21
70.517558
  0
LINE
  8
2
 62
7
  6
CONTINUOUS
 10
183.683923
 20
62.786553
 11
183.683923
 21
70.517558
  0
TEXT
  8
3
 62
7
  6
CONTINUOUS
 10
203.700614
 20
104.371497
 40
3.500000
 41
1.000000
  1
本体　緑色：YSK-AA10B
  7
KANJI
 50
0.000000
 51
0.000000
  0
TEXT
  8
3
 62
7
  6
CONTINUOUS
 10
214.307444
 20
99.651707
 40
3.500000
 41
1.000000
  1
黒色：YSK-AA30B,AA35B
  7
KANJI
 50
0.000000
 51
0.000000
  0
LINE
  8
3
 62
7
  6
CONTINUOUS
 10
123.842054
 20
121.341362
 11
132.373093
 21
136.117555
  0
LINE
  8
3
 62
7
  6
CONTINUOUS
 10
132.373093
 20
136.117555
 11
145.739340
 21
136.117555
  0
TEXT
  8
3
 62
7
  6
CONTINUOUS
 10
133.489340
 20
136.117555
 40
3.500000
 41
0.500000
  1
ELP-03V
  7
KANJI
 50
0.000000
 51
0.000000
  0
LINE
  8
3
 62
7
  6
CONTINUOUS
 10
123.842054
 20
121.341362
 11
124.359692
 21
123.273214
  0
LINE
  8
3
 62
7
  6
CONTINUOUS
 10
123.842054
 20
121.341362
 11
125.256268
 21
122.755576
  0
LINE
  8
3
 62
7
  6
CONTINUOUS
 10
143.065363
 20
136.112873
 11
162.665511
 21
136.112873
  0
TEXT
  8
3
 62
7
  6
CONTINUOUS
 10
133.193496
 20
132.114557
 40
3.500000
 41
1.000000
  1
中継接続用コネクタ
  7
KANJI
 50
0.000000
 51
0.000000
  0
TEXT
  8
3
 62
7
  6
CONTINUOUS
 10
133.041858
 20
128.522662
 40
3.500000
 41
1.000000
  1
(日本圧着端子製)
  7
KANJI
 50
0.000000
 51
0.000000
  0
ENDSEC
  0
EOF
