  0
SECTION
  2
HEADER
  9
$ACADVER
  1
AC1003
  9
$INSBASE
 10
0.000000
 20
0.000000
  9
$EXTMIN
 10
0.000000
 20
0.000000
  9
$EXTMAX
 10
514.000000
 20
364.000000
  9
$LIMMIN
 10
0.000000
 20
0.000000
  9
$LIMMAX
 10
514.000000
 20
364.000000
  9
$VIEWCTR
 10
257.000000
 20
182.000000
  9
$VIEWSIZE
 40
364.000000
  9
$PEXTMIN
 10
0.000000
 20
0.000000
 30
0.000000
  9
$PEXTMAX
 10
257.000000
 20
182.000000
 30
0.000000
  9
$SNAPMODE
 70
     0
  9
$SNAPUNIT
 10
1.000000
 20
1.000000
  9
$SNAPBASE
 10
0.000000
 20
0.000000
  9
$SNAPANG
 50
0.000000
  9
$SNAPISOPAIR
 70
     0
  9
$SNAPSTYLE
 70
     0
  9
$GRIDMODE
 70
     0
  9
$GRIDUNIT
 10
0.000000
 20
0.000000
  9
$ORTHOMODE
 70
     0
  9
$REGENMODE
 70
     1
  9
$FILLMODE
 70
     1
  9
$QTEXTMODE
 70
     0
  9
$DRAGMODE
 70
     2
  9
$LTSCALE
 40
0.500000
  9
$OSMODE
 70
     0
  9
$ATTMODE
 70
     1
  9
$TEXTSIZE
 40
10.000000
  9
$TRACEWID
 40
0.050000
  9
$TEXTSTYLE
  7
STANDARD
  9
$CLAYER
  8
0
  9
$CELTYPE
  6
BYLAYER
  9
$CECOLOR
 62
   256
  9
$DIMSCALE
 40
1.000000
  9
$DIMASZ
 40
1.000000
  9
$DIMEXO
 40
0.000000
  9
$DIMDLI
 40
0.500000
  9
$DIMRND
 40
0.000000
  9
$DIMDLE
 40
0.000000
  9
$DIMEXE
 40
0.000000
  9
$DIMTP
 40
0.000000
  9
$DIMTM
 40
0.000000
  9
$DIMTXT
 40
4.000000
  9
$DIMCEN
 40
0.000000
  9
$DIMTSZ
 40
0.000000
  9
$DIMTOL
 70
     0
  9
$DIMLIM
 70
     0
  9
$DIMTIH
 70
     1
  9
$DIMTOH
 70
     1
  9
$DIMSE1
 70
     0
  9
$DIMSE2
 70
     0
  9
$DIMTAD
 70
     0
  9
$DIMZIN
 70
     0
  9
$DIMBLK
  1

  9
$DIMASO
 70
     0
  9
$DIMSHO
 70
     0
  9
$DIMPOST
  1

  9
$DIMAPOST
  1

  9
$DIMALT
 70
     0
  9
$DIMALTD
 70
     0
  9
$DIMALTF
 40
25.400000
  9
$DIMLFAC
 40
1.000000
  9
$DIMTOFL
 70
     0
  9
$DIMTVP
 40
0.000000
  9
$DIMTIX
 70
     0
  9
$DIMSOXD
 70
     0
  9
$DIMSAH
 70
     0
  9
$DIMBLKL
  1

  9
$DIMBLKR
  1

  9
$LUNITS
 70
     2
  9
$LUPREC
 70
     2
  9
$AXISMODE
 70
     0
  9
$AXISUNIT
 10
1.000000
 20
1.000000
  9
$SKETCHINC
 40
0.000000
  9
$FILLETRAD
 40
0.000000
  9
$AUNITS
 70
     1
  9
$AUPREC
 70
     2
  9
$MENU
  1
ACAD
  9
$ELEVATION
 40
0.000000
  9
$THICKNESS
 40
0.000000
  9
$VIEWDIR
 10
0.000000
 20
0.000000
 30
1.000000
  9
$LIMCHECK
 70
     1
  9
$BLIPMODE
 70
     1
  9
$CHAMFERA
 40
0.000000
  9
$CHAMFERB
 40
0.000000
  9
$FASTZOOM
 70
     1
  9
$SKPOLY
 70
     0
  9
$TDCREATE
 40
0.000000
  9
$TDUPDATE
 40
0.000000
  9
$TDINDWG
 40
0.000000
  9
$TDUSRTIMER
 40
0.000000
  9
$USRTIMER
 70
     1
  9
$ANGBASE
 50
0.000000
  9
$ANGDIR
 70
     0
  9
$PDMODE
 70
     0
  9
$PDSIZE
 40
0.000000
  9
$PLINEWID
 40
0.000000
  9
$COORDS
 70
     2
  9
$USERI1
 70
     0
  9
$USERI2
 70
     0
  9
$USERI3
 70
     0
  9
$USERI4
 70
     0
  9
$USERI5
 70
     0
  9
$USERR1
 40
0.000000
  9
$USERR2
 40
0.000000
  9
$USERR3
 40
0.000000
  9
$USERR4
 40
0.000000
  9
$USERR5
 40
0.000000
  0
ENDSEC
  0
SECTION
  2
TABLES
  0
TABLE
  2
LTYPE
 70
     5
  0
LTYPE
  2
CONTINUOUS
 70
    64
  3
Solid line
 72
    65
 73
     0
 40
0.0
  0
LTYPE
  2
HIDDEN
 70
    64
  3
------------------------
 72
    65
 73
     2
 40
12.6
 49
8.4
 49
-4.2
  0
LTYPE
  2
DOT
 70
    64
  3
････････････････････････
 72
    65
 73
     2
 40
8.0
 49
6.0
 49
-2.0
  0
LTYPE
  2
DASHDOT
 70
    64
  3
--･--･--･--･--･--･--･--
 72
    65
 73
     4
 40
50.5
 49
30.0
 49
-9.0
 49
2.5
 49
-9.0
  0
LTYPE
  2
DIVIDE
 70
    64
  3
--･･--･･--･･--･･--･･--
 72
    65
 73
     6
 40
58.0
 49
30.0
 49
-9.0
 49
2.5
 49
-5.0
 49
2.5
 49
-9.0
  0
LTYPE
  2
ACAD_ISO06W100
 70
    64
  3
____ ... ____ ... ____
 72
    65
 73
     8
 40
37.5
 49
24.0
 49
-3.0
 49
0.5
 49
-3.0
 49
0.5
 49
-3.0
 49
0.5
 49
-3.0
  0
LTYPE
  2
ACAD_ISO14W100
 70
    64
  3
__ . . . __ . . . __ . . . 
 72
    65
 73
     8
 40
25.5
 49
12.0
 49
-3.0
 49
0.5
 49
-3.0
 49
0.5
 49
-3.0
 49
0.5
 49
-3.0
  0
ENDTAB
  0
TABLE
  2
LAYER
 70
2
  0
LAYER
  2
1
 70
64
 62
7
  6
CONTINUOUS
  0
LAYER
  2
2
 70
64
 62
7
  6
CONTINUOUS
  0
ENDTAB
  0
TABLE
  2
STYLE
 70
     2
  0
STYLE
  2
STANDARD
 70
    64
 40
0.0
 41
1.0
 50
0.0
 71
     0
 42
0.2
  3
TXT
  4

  0
STYLE
  2
KANJI
 70
    64
 40
0.0
 41
1.0
 50
0.0
 71
     0
 42
0.2
  3
TXT
  4
BIGFONT
  0
ENDTAB
  0
TABLE
  2
VIEW
 70
     0
  0
ENDTAB
  0
ENDSEC
  0
SECTION
  2
BLOCKS
  0
ENDSEC
  0
SECTION
  2
ENTITIES
  0
ARC
  8
1
 62
7
  6
CONTINUOUS
 10
65.099999
 20
81.399999
 40
3.400000
 50
90.000000
 51
180.000000
  0
ARC
  8
1
 62
7
  6
CONTINUOUS
 10
97.599999
 20
81.399999
 40
3.400000
 50
0.000000
 51
90.000000
  0
LINE
  8
1
 62
7
  6
CONTINUOUS
 10
100.999999
 20
81.399999
 11
100.999999
 21
48.899999
  0
LINE
  8
1
 62
7
  6
CONTINUOUS
 10
61.699999
 20
81.399999
 11
61.699999
 21
48.899999
  0
ARC
  8
1
 62
7
  6
CONTINUOUS
 10
65.099999
 20
48.899999
 40
3.400000
 50
180.000000
 51
-90.000000
  0
LINE
  8
1
 62
7
  6
CONTINUOUS
 10
97.599999
 20
45.499999
 11
65.099999
 21
45.499999
  0
ARC
  8
1
 62
7
  6
CONTINUOUS
 10
97.599999
 20
48.899999
 40
3.400000
 50
-90.000000
 51
0.000000
  0
LINE
  8
1
 62
7
  6
CONTINUOUS
 10
65.099999
 20
84.800001
 11
97.599999
 21
84.800001
  0
ARC
  8
1
 62
7
  6
CONTINUOUS
 10
64.849999
 20
48.650001
 40
3.000000
 50
180.000000
 51
-90.000000
  0
LINE
  8
1
 62
7
  6
CONTINUOUS
 10
61.849999
 20
48.650001
 11
61.849999
 21
81.649999
  0
LINE
  8
1
 62
7
  6
CONTINUOUS
 10
97.849999
 20
45.650000
 11
64.849999
 21
45.650000
  0
ARC
  8
1
 62
7
  6
CONTINUOUS
 10
64.849999
 20
81.649999
 40
3.000000
 50
90.000000
 51
180.000000
  0
ARC
  8
1
 62
7
  6
CONTINUOUS
 10
97.849999
 20
81.649999
 40
3.000000
 50
0.000000
 51
90.000000
  0
LINE
  8
1
 62
7
  6
CONTINUOUS
 10
100.849998
 20
81.649999
 11
100.849998
 21
48.650001
  0
LINE
  8
1
 62
7
  6
CONTINUOUS
 10
64.849999
 20
84.650000
 11
97.849999
 21
84.650000
  0
ARC
  8
1
 62
7
  6
CONTINUOUS
 10
97.849999
 20
48.650001
 40
3.000000
 50
-90.000000
 51
0.000000
  0
CIRCLE
  8
1
 62
7
  6
CONTINUOUS
 10
81.350000
 20
63.650000
 40
2.750000
  0
CIRCLE
  8
1
 62
7
  6
CONTINUOUS
 10
81.350000
 20
63.650000
 40
4.600001
  0
CIRCLE
  8
1
 62
7
  6
CONTINUOUS
 10
81.350000
 20
63.650000
 40
5.555999
  0
CIRCLE
  8
1
 62
7
  6
CONTINUOUS
 10
81.350000
 20
63.650000
 40
14.849999
  0
CIRCLE
  8
1
 62
7
  6
CONTINUOUS
 10
81.350000
 20
63.650000
 40
2.400000
  0
LINE
  8
1
 62
7
  6
CONTINUOUS
 10
74.421797
 20
63.650000
 11
77.885898
 21
69.650000
  0
LINE
  8
1
 62
7
  6
CONTINUOUS
 10
77.885898
 20
69.650000
 11
84.814101
 21
69.650000
  0
LINE
  8
1
 62
7
  6
CONTINUOUS
 10
84.814101
 20
69.650000
 11
88.278202
 21
63.650000
  0
LINE
  8
1
 62
7
  6
CONTINUOUS
 10
88.278202
 20
63.650000
 11
84.814101
 21
57.650000
  0
LINE
  8
1
 62
7
  6
CONTINUOUS
 10
84.814101
 20
57.650000
 11
77.885898
 21
57.650000
  0
LINE
  8
1
 62
7
  6
CONTINUOUS
 10
77.885898
 20
57.650000
 11
74.421797
 21
63.650000
  0
CIRCLE
  8
1
 62
7
  6
CONTINUOUS
 10
81.350000
 20
63.650000
 40
5.928202
  0
CIRCLE
  8
1
 62
7
  6
CONTINUOUS
 10
65.099999
 20
81.399999
 40
2.750000
  0
LINE
  8
1
 62
7
  6
CONTINUOUS
 10
66.900000
 20
81.799999
 11
66.900000
 21
81.000000
  0
LINE
  8
1
 62
7
  6
CONTINUOUS
 10
63.299998
 20
81.000000
 11
63.299998
 21
81.799999
  0
LINE
  8
1
 62
7
  6
CONTINUOUS
 10
64.699999
 20
83.200000
 11
65.499999
 21
83.200000
  0
LINE
  8
1
 62
7
  6
CONTINUOUS
 10
65.499999
 20
79.600000
 11
64.699999
 21
79.600000
  0
ARC
  8
1
 62
7
  6
CONTINUOUS
 10
63.999999
 20
82.499999
 40
0.699999
 50
-90.000000
 51
0.000000
  0
LINE
  8
1
 62
7
  6
CONTINUOUS
 10
64.699999
 20
82.499999
 11
64.699999
 21
83.200000
  0
LINE
  8
1
 62
7
  6
CONTINUOUS
 10
63.299998
 20
81.799999
 11
63.999999
 21
81.799999
  0
ARC
  8
1
 62
7
  6
CONTINUOUS
 10
66.199999
 20
82.499999
 40
0.699999
 50
180.000000
 51
-90.000000
  0
LINE
  8
1
 62
7
  6
CONTINUOUS
 10
65.499999
 20
83.200000
 11
65.499999
 21
82.499999
  0
LINE
  8
1
 62
7
  6
CONTINUOUS
 10
66.199999
 20
81.799999
 11
66.900000
 21
81.799999
  0
ARC
  8
1
 62
7
  6
CONTINUOUS
 10
66.199999
 20
80.300001
 40
0.699999
 50
90.000000
 51
180.000000
  0
LINE
  8
1
 62
7
  6
CONTINUOUS
 10
66.900000
 20
81.000000
 11
66.199999
 21
81.000000
  0
LINE
  8
1
 62
7
  6
CONTINUOUS
 10
65.499999
 20
80.300001
 11
65.499999
 21
79.600000
  0
ARC
  8
1
 62
7
  6
CONTINUOUS
 10
63.999999
 20
80.300001
 40
0.699999
 50
0.000000
 51
90.000000
  0
LINE
  8
1
 62
7
  6
CONTINUOUS
 10
64.699999
 20
79.600000
 11
64.699999
 21
80.300001
  0
LINE
  8
1
 62
7
  6
CONTINUOUS
 10
63.999999
 20
81.000000
 11
63.299998
 21
81.000000
  0
CIRCLE
  8
1
 62
7
  6
CONTINUOUS
 10
65.099999
 20
48.899999
 40
2.750000
  0
LINE
  8
1
 62
7
  6
CONTINUOUS
 10
66.900000
 20
49.300000
 11
66.900000
 21
48.500001
  0
LINE
  8
1
 62
7
  6
CONTINUOUS
 10
63.299998
 20
48.500001
 11
63.299998
 21
49.300000
  0
LINE
  8
1
 62
7
  6
CONTINUOUS
 10
64.699999
 20
50.700000
 11
65.499999
 21
50.700000
  0
LINE
  8
1
 62
7
  6
CONTINUOUS
 10
65.499999
 20
47.100000
 11
64.699999
 21
47.100000
  0
ARC
  8
1
 62
7
  6
CONTINUOUS
 10
63.999999
 20
49.999999
 40
0.699999
 50
-90.000000
 51
0.000000
  0
LINE
  8
1
 62
7
  6
CONTINUOUS
 10
64.699999
 20
49.999999
 11
64.699999
 21
50.700000
  0
LINE
  8
1
 62
7
  6
CONTINUOUS
 10
63.299998
 20
49.300000
 11
63.999999
 21
49.300000
  0
ARC
  8
1
 62
7
  6
CONTINUOUS
 10
66.199999
 20
49.999999
 40
0.699999
 50
180.000000
 51
-90.000000
  0
LINE
  8
1
 62
7
  6
CONTINUOUS
 10
65.499999
 20
50.700000
 11
65.499999
 21
49.999999
  0
LINE
  8
1
 62
7
  6
CONTINUOUS
 10
66.199999
 20
49.300000
 11
66.900000
 21
49.300000
  0
ARC
  8
1
 62
7
  6
CONTINUOUS
 10
66.199999
 20
47.800001
 40
0.699999
 50
90.000000
 51
180.000000
  0
LINE
  8
1
 62
7
  6
CONTINUOUS
 10
66.900000
 20
48.500001
 11
66.199999
 21
48.500001
  0
LINE
  8
1
 62
7
  6
CONTINUOUS
 10
65.499999
 20
47.800001
 11
65.499999
 21
47.100000
  0
ARC
  8
1
 62
7
  6
CONTINUOUS
 10
63.999999
 20
47.800001
 40
0.699999
 50
0.000000
 51
90.000000
  0
LINE
  8
1
 62
7
  6
CONTINUOUS
 10
64.699999
 20
47.100000
 11
64.699999
 21
47.800001
  0
LINE
  8
1
 62
7
  6
CONTINUOUS
 10
63.999999
 20
48.500001
 11
63.299998
 21
48.500001
  0
CIRCLE
  8
1
 62
7
  6
CONTINUOUS
 10
97.599999
 20
48.899999
 40
2.750000
  0
LINE
  8
1
 62
7
  6
CONTINUOUS
 10
99.399999
 20
49.300000
 11
99.399999
 21
48.500001
  0
LINE
  8
1
 62
7
  6
CONTINUOUS
 10
95.799998
 20
48.500001
 11
95.799998
 21
49.300000
  0
LINE
  8
1
 62
7
  6
CONTINUOUS
 10
97.199998
 20
50.700000
 11
97.999999
 21
50.700000
  0
LINE
  8
1
 62
7
  6
CONTINUOUS
 10
97.999999
 20
47.100000
 11
97.199998
 21
47.100000
  0
ARC
  8
1
 62
7
  6
CONTINUOUS
 10
96.499999
 20
49.999999
 40
0.699999
 50
-90.000000
 51
0.000000
  0
LINE
  8
1
 62
7
  6
CONTINUOUS
 10
97.199998
 20
49.999999
 11
97.199998
 21
50.700000
  0
LINE
  8
1
 62
7
  6
CONTINUOUS
 10
95.799998
 20
49.300000
 11
96.499999
 21
49.300000
  0
ARC
  8
1
 62
7
  6
CONTINUOUS
 10
98.699998
 20
49.999999
 40
0.699999
 50
180.000000
 51
-90.000000
  0
LINE
  8
1
 62
7
  6
CONTINUOUS
 10
97.999999
 20
50.700000
 11
97.999999
 21
49.999999
  0
LINE
  8
1
 62
7
  6
CONTINUOUS
 10
98.699998
 20
49.300000
 11
99.399999
 21
49.300000
  0
ARC
  8
1
 62
7
  6
CONTINUOUS
 10
98.699998
 20
47.800001
 40
0.699999
 50
90.000000
 51
180.000000
  0
LINE
  8
1
 62
7
  6
CONTINUOUS
 10
99.399999
 20
48.500001
 11
98.699998
 21
48.500001
  0
LINE
  8
1
 62
7
  6
CONTINUOUS
 10
97.999999
 20
47.800001
 11
97.999999
 21
47.100000
  0
ARC
  8
1
 62
7
  6
CONTINUOUS
 10
96.499999
 20
47.800001
 40
0.699999
 50
0.000000
 51
90.000000
  0
LINE
  8
1
 62
7
  6
CONTINUOUS
 10
97.199998
 20
47.100000
 11
97.199998
 21
47.800001
  0
LINE
  8
1
 62
7
  6
CONTINUOUS
 10
96.499999
 20
48.500001
 11
95.799998
 21
48.500001
  0
CIRCLE
  8
1
 62
7
  6
CONTINUOUS
 10
97.599999
 20
81.399999
 40
2.750000
  0
LINE
  8
1
 62
7
  6
CONTINUOUS
 10
99.399999
 20
81.799999
 11
99.399999
 21
81.000000
  0
LINE
  8
1
 62
7
  6
CONTINUOUS
 10
95.799998
 20
81.000000
 11
95.799998
 21
81.799999
  0
LINE
  8
1
 62
7
  6
CONTINUOUS
 10
97.199998
 20
83.200000
 11
97.999999
 21
83.200000
  0
LINE
  8
1
 62
7
  6
CONTINUOUS
 10
97.999999
 20
79.600000
 11
97.199998
 21
79.600000
  0
ARC
  8
1
 62
7
  6
CONTINUOUS
 10
96.499999
 20
82.499999
 40
0.699999
 50
-90.000000
 51
0.000000
  0
LINE
  8
1
 62
7
  6
CONTINUOUS
 10
97.199998
 20
82.499999
 11
97.199998
 21
83.200000
  0
LINE
  8
1
 62
7
  6
CONTINUOUS
 10
95.799998
 20
81.799999
 11
96.499999
 21
81.799999
  0
ARC
  8
1
 62
7
  6
CONTINUOUS
 10
98.699998
 20
82.499999
 40
0.699999
 50
180.000000
 51
-90.000000
  0
LINE
  8
1
 62
7
  6
CONTINUOUS
 10
97.999999
 20
83.200000
 11
97.999999
 21
82.499999
  0
LINE
  8
1
 62
7
  6
CONTINUOUS
 10
98.699998
 20
81.799999
 11
99.399999
 21
81.799999
  0
ARC
  8
1
 62
7
  6
CONTINUOUS
 10
98.699998
 20
80.300001
 40
0.699999
 50
90.000000
 51
180.000000
  0
LINE
  8
1
 62
7
  6
CONTINUOUS
 10
99.399999
 20
81.000000
 11
98.699998
 21
81.000000
  0
LINE
  8
1
 62
7
  6
CONTINUOUS
 10
97.999999
 20
80.300001
 11
97.999999
 21
79.600000
  0
ARC
  8
1
 62
7
  6
CONTINUOUS
 10
96.499999
 20
80.300001
 40
0.699999
 50
0.000000
 51
90.000000
  0
LINE
  8
1
 62
7
  6
CONTINUOUS
 10
97.199998
 20
79.600000
 11
97.199998
 21
80.300001
  0
LINE
  8
1
 62
7
  6
CONTINUOUS
 10
96.499999
 20
81.000000
 11
95.799998
 21
81.000000
  0
LINE
  8
1
 62
7
  6
CONTINUOUS
 10
84.099999
 20
138.949998
 11
78.600000
 21
138.949998
  0
LINE
  8
1
 62
7
  6
CONTINUOUS
 10
84.099999
 20
138.949998
 11
85.949999
 21
140.799999
  0
LINE
  8
1
 62
7
  6
CONTINUOUS
 10
85.949999
 20
140.799999
 11
85.949999
 21
142.649998
  0
LINE
  8
1
 62
7
  6
CONTINUOUS
 10
85.949999
 20
142.649998
 11
86.905999
 21
143.605998
  0
LINE
  8
1
 62
7
  6
CONTINUOUS
 10
86.905999
 20
143.605998
 11
86.905999
 21
152.449999
  0
LINE
  8
1
 62
7
  6
CONTINUOUS
 10
78.600000
 20
138.949998
 11
76.750000
 21
140.799999
  0
LINE
  8
1
 62
7
  6
CONTINUOUS
 10
76.750000
 20
140.799999
 11
76.750000
 21
142.649998
  0
LINE
  8
1
 62
7
  6
CONTINUOUS
 10
76.750000
 20
142.649998
 11
75.794001
 21
143.605998
  0
LINE
  8
1
 62
7
  6
CONTINUOUS
 10
75.794001
 20
143.605998
 11
75.794001
 21
152.449999
  0
LINE
  8
1
 62
7
  6
CONTINUOUS
 10
86.905999
 20
151.260080
 11
75.794001
 21
151.260080
  0
LINE
  8
1
 62
7
  6
CONTINUOUS
 10
75.794001
 20
143.605998
 11
86.905999
 21
143.605998
  0
LINE
  8
1
 62
7
  6
CONTINUOUS
 10
85.949999
 20
142.649998
 11
76.750000
 21
142.649998
  0
LINE
  8
1
 62
7
  6
CONTINUOUS
 10
76.750000
 20
140.799999
 11
85.949999
 21
140.799999
  0
ARC
  8
1
 62
7
  6
CONTINUOUS
 10
67.999999
 20
160.949998
 40
1.500000
 50
180.000000
 51
-90.000000
  0
LINE
  8
1
 62
7
  6
CONTINUOUS
 10
94.699998
 20
159.450000
 11
67.999999
 21
159.450000
  0
ARC
  8
1
 62
7
  6
CONTINUOUS
 10
94.699998
 20
160.949998
 40
1.500000
 50
-90.000000
 51
0.000000
  0
LINE
  8
1
 62
7
  6
CONTINUOUS
 10
77.600000
 20
180.699998
 11
85.099999
 21
180.699998
  0
LINE
  8
1
 62
7
  6
CONTINUOUS
 10
85.099999
 20
181.099997
 11
77.600000
 21
181.099997
  0
LINE
  8
1
 62
7
  6
CONTINUOUS
 10
77.000000
 20
180.399998
 11
85.699999
 21
180.399998
  0
LINE
  8
1
 62
7
  6
CONTINUOUS
 10
85.699999
 20
173.499998
 11
77.000000
 21
173.499998
  0
LINE
  8
1
 62
7
  6
CONTINUOUS
 10
85.699999
 20
173.199997
 11
77.000000
 21
173.199997
  0
LINE
  8
1
 62
7
  6
CONTINUOUS
 10
77.000000
 20
178.899998
 11
85.699999
 21
178.899998
  0
LINE
  8
1
 62
7
  6
CONTINUOUS
 10
82.100000
 20
177.199997
 11
80.600000
 21
177.199997
  0
LINE
  8
1
 62
7
  6
CONTINUOUS
 10
80.650000
 20
175.749998
 11
82.049999
 21
175.749998
  0
LINE
  8
1
 62
7
  6
CONTINUOUS
 10
82.049999
 20
176.249998
 11
80.650000
 21
176.249998
  0
LINE
  8
1
 62
7
  6
CONTINUOUS
 10
85.099999
 20
180.399998
 11
85.099999
 21
181.399998
  0
ARC
  8
1
 62
7
  6
CONTINUOUS
 10
85.699999
 20
179.899998
 40
0.500000
 50
0.000000
 51
90.000000
  0
ARC
  8
1
 62
7
  6
CONTINUOUS
 10
85.699999
 20
173.999998
 40
0.500000
 50
-90.000000
 51
0.000000
  0
ARC
  8
1
 62
7
  6
CONTINUOUS
 10
85.699999
 20
173.699997
 40
0.500000
 50
-90.000000
 51
0.000000
  0
LINE
  8
1
 62
7
  6
CONTINUOUS
 10
86.199999
 20
179.899998
 11
86.199999
 21
173.699997
  0
LINE
  8
1
 62
7
  6
CONTINUOUS
 10
86.900000
 20
175.199997
 11
86.900000
 21
177.199997
  0
LINE
  8
1
 62
7
  6
CONTINUOUS
 10
85.549999
 20
173.499998
 11
85.549999
 21
175.199997
  0
LINE
  8
1
 62
7
  6
CONTINUOUS
 10
85.549999
 20
175.199997
 11
86.199999
 21
175.199997
  0
ARC
  8
1
 62
7
  6
CONTINUOUS
 10
85.699999
 20
178.399998
 40
0.500000
 50
0.000000
 51
90.000000
  0
LINE
  8
1
 62
7
  6
CONTINUOUS
 10
86.199999
 20
178.299998
 11
85.549999
 21
178.299998
  0
LINE
  8
1
 62
7
  6
CONTINUOUS
 10
85.549999
 20
178.299998
 11
85.549999
 21
178.899998
  0
LINE
  8
1
 62
7
  6
CONTINUOUS
 10
82.100000
 20
178.899998
 11
82.100000
 21
177.199997
  0
LINE
  8
1
 62
7
  6
CONTINUOUS
 10
84.599999
 20
177.199997
 11
83.099999
 21
177.199997
  0
LINE
  8
1
 62
7
  6
CONTINUOUS
 10
83.099999
 20
177.199997
 11
83.099999
 21
178.899998
  0
LINE
  8
1
 62
7
  6
CONTINUOUS
 10
84.599999
 20
178.899998
 11
84.599999
 21
177.199997
  0
LINE
  8
1
 62
7
  6
CONTINUOUS
 10
82.049999
 20
175.749998
 11
82.049999
 21
176.249998
  0
LINE
  8
1
 62
7
  6
CONTINUOUS
 10
84.549999
 20
176.249998
 11
83.149999
 21
176.249998
  0
LINE
  8
1
 62
7
  6
CONTINUOUS
 10
83.149999
 20
176.249998
 11
83.149999
 21
175.749998
  0
LINE
  8
1
 62
7
  6
CONTINUOUS
 10
83.149999
 20
175.749998
 11
84.549999
 21
175.749998
  0
LINE
  8
1
 62
7
  6
CONTINUOUS
 10
84.549999
 20
175.749998
 11
84.549999
 21
176.249998
  0
LINE
  8
1
 62
7
  6
CONTINUOUS
 10
77.600000
 20
180.399998
 11
77.600000
 21
181.399998
  0
ARC
  8
1
 62
7
  6
CONTINUOUS
 10
77.000000
 20
179.899998
 40
0.500000
 50
90.000000
 51
180.000000
  0
ARC
  8
1
 62
7
  6
CONTINUOUS
 10
77.000000
 20
173.999998
 40
0.500000
 50
180.000000
 51
-90.000000
  0
ARC
  8
1
 62
7
  6
CONTINUOUS
 10
77.000000
 20
173.699997
 40
0.500000
 50
180.000000
 51
-90.000000
  0
LINE
  8
1
 62
7
  6
CONTINUOUS
 10
76.500000
 20
173.699997
 11
76.500000
 21
179.899998
  0
LINE
  8
1
 62
7
  6
CONTINUOUS
 10
75.799999
 20
175.199997
 11
75.799999
 21
177.199997
  0
LINE
  8
1
 62
7
  6
CONTINUOUS
 10
77.150000
 20
173.499998
 11
77.150000
 21
175.199997
  0
LINE
  8
1
 62
7
  6
CONTINUOUS
 10
77.150000
 20
175.199997
 11
76.500000
 21
175.199997
  0
ARC
  8
1
 62
7
  6
CONTINUOUS
 10
77.000000
 20
178.399998
 40
0.500000
 50
90.000000
 51
180.000000
  0
LINE
  8
1
 62
7
  6
CONTINUOUS
 10
77.150000
 20
178.899998
 11
77.150000
 21
177.199997
  0
LINE
  8
1
 62
7
  6
CONTINUOUS
 10
77.150000
 20
177.199997
 11
76.500000
 21
177.199997
  0
LINE
  8
1
 62
7
  6
CONTINUOUS
 10
80.600000
 20
177.199997
 11
80.600000
 21
178.899998
  0
LINE
  8
1
 62
7
  6
CONTINUOUS
 10
79.600000
 20
177.199997
 11
78.100000
 21
177.199997
  0
LINE
  8
1
 62
7
  6
CONTINUOUS
 10
78.100000
 20
177.199997
 11
78.100000
 21
178.899998
  0
LINE
  8
1
 62
7
  6
CONTINUOUS
 10
79.600000
 20
178.899998
 11
79.600000
 21
177.199997
  0
LINE
  8
1
 62
7
  6
CONTINUOUS
 10
79.550001
 20
176.249998
 11
78.150000
 21
176.249998
  0
LINE
  8
1
 62
7
  6
CONTINUOUS
 10
78.150000
 20
176.249998
 11
78.150000
 21
175.749998
  0
LINE
  8
1
 62
7
  6
CONTINUOUS
 10
78.150000
 20
175.749998
 11
79.550001
 21
175.749998
  0
LINE
  8
1
 62
7
  6
CONTINUOUS
 10
79.550001
 20
175.749998
 11
79.550001
 21
176.249998
  0
LINE
  8
1
 62
7
  6
CONTINUOUS
 10
80.650000
 20
176.249998
 11
80.650000
 21
175.749998
  0
ARC
  8
1
 62
7
  6
CONTINUOUS
 10
92.199999
 20
172.399998
 40
1.000000
 50
-90.000000
 51
0.000000
  0
ARC
  8
1
 62
7
  6
CONTINUOUS
 10
70.499999
 20
172.399998
 40
1.000000
 50
180.000000
 51
-90.000000
  0
LINE
  8
1
 62
7
  6
CONTINUOUS
 10
70.499999
 20
171.399998
 11
92.199999
 21
171.399998
  0
LINE
  8
1
 62
7
  6
CONTINUOUS
 10
69.499999
 20
181.399998
 11
93.199999
 21
181.399998
  0
LINE
  8
1
 62
7
  6
CONTINUOUS
 10
101.999999
 20
165.149999
 11
60.699999
 21
165.149999
  0
LINE
  8
1
 62
7
  6
CONTINUOUS
 10
69.499999
 20
172.399998
 11
69.499999
 21
184.899998
  0
LINE
  8
1
 62
7
  6
CONTINUOUS
 10
93.199999
 20
172.399998
 11
93.199999
 21
184.899998
  0
LINE
  8
1
 62
7
  6
CONTINUOUS
 10
75.350000
 20
177.199997
 11
75.350000
 21
175.199997
  0
LINE
  8
1
 62
7
  6
CONTINUOUS
 10
87.349999
 20
175.199997
 11
87.349999
 21
177.199997
  0
LINE
  8
1
 62
7
  6
CONTINUOUS
 10
76.500000
 20
175.199997
 11
75.350000
 21
175.199997
  0
LINE
  8
1
 62
7
  6
CONTINUOUS
 10
76.500000
 20
177.199997
 11
75.350000
 21
177.199997
  0
LINE
  8
1
 62
7
  6
CONTINUOUS
 10
87.349999
 20
175.199997
 11
86.199999
 21
175.199997
  0
LINE
  8
1
 62
7
  6
CONTINUOUS
 10
87.349999
 20
177.199997
 11
86.199999
 21
177.199997
  0
ARC
  8
1
 62
7
  6
CONTINUOUS
 10
76.850000
 20
179.899998
 40
1.500000
 50
90.000000
 51
180.000000
  0
LINE
  8
1
 62
7
  6
CONTINUOUS
 10
75.350000
 20
177.199997
 11
75.350000
 21
179.899998
  0
ARC
  8
1
 62
7
  6
CONTINUOUS
 10
85.849999
 20
179.899998
 40
1.500000
 50
0.000000
 51
90.000000
  0
LINE
  8
1
 62
7
  6
CONTINUOUS
 10
87.349999
 20
177.199997
 11
87.349999
 21
179.899998
  0
LINE
  8
1
 62
7
  6
CONTINUOUS
 10
88.278202
 20
158.449998
 11
88.278202
 21
153.449998
  0
LINE
  8
1
 62
7
  6
CONTINUOUS
 10
84.814101
 20
158.449998
 11
84.814101
 21
153.449998
  0
LINE
  8
1
 62
7
  6
CONTINUOUS
 10
88.278202
 20
158.449998
 11
87.278202
 21
159.450000
  0
ARC
  8
1
 62
7
  6
CONTINUOUS
 10
86.546151
 20
157.449998
 40
2.000000
 50
29.999995
 51
150.000005
  0
ARC
  8
1
 62
7
  6
CONTINUOUS
 10
86.546151
 20
154.449998
 40
2.000000
 50
-150.000005
 51
-29.999995
  0
LINE
  8
1
 62
7
  6
CONTINUOUS
 10
87.278202
 20
152.449999
 11
88.278202
 21
153.449998
  0
LINE
  8
1
 62
7
  6
CONTINUOUS
 10
74.421797
 20
158.449998
 11
74.421797
 21
153.449998
  0
LINE
  8
1
 62
7
  6
CONTINUOUS
 10
77.885898
 20
158.449998
 11
77.885898
 21
153.449998
  0
LINE
  8
1
 62
7
  6
CONTINUOUS
 10
74.421797
 20
158.449998
 11
75.421797
 21
159.450000
  0
ARC
  8
1
 62
7
  6
CONTINUOUS
 10
76.153848
 20
157.449998
 40
2.000000
 50
29.999995
 51
150.000005
  0
ARC
  8
1
 62
7
  6
CONTINUOUS
 10
76.153848
 20
154.449998
 40
2.000000
 50
-150.000005
 51
-29.999995
  0
LINE
  8
1
 62
7
  6
CONTINUOUS
 10
75.421797
 20
152.449999
 11
74.421797
 21
153.449998
  0
ARC
  8
1
 62
7
  6
CONTINUOUS
 10
81.350000
 20
152.949997
 40
6.500001
 50
90.000000
 51
122.204223
  0
ARC
  8
1
 62
7
  6
CONTINUOUS
 10
81.350000
 20
152.949997
 40
6.500001
 50
57.795777
 51
90.000000
  0
ARC
  8
1
 62
7
  6
CONTINUOUS
 10
81.350000
 20
158.950000
 40
6.500001
 50
-90.000000
 51
-57.795777
  0
ARC
  8
1
 62
7
  6
CONTINUOUS
 10
81.350000
 20
158.950000
 40
6.500001
 50
-122.204223
 51
-90.000000
  0
LINE
  8
1
 62
7
  6
CONTINUOUS
 10
75.421797
 20
152.449999
 11
87.278202
 21
152.449999
  0
LINE
  8
1
 62
7
  6
CONTINUOUS
 10
67.849999
 20
165.149999
 11
62.349999
 21
165.149999
  0
ARC
  8
1
 62
7
  6
CONTINUOUS
 10
66.779679
 20
164.389905
 40
1.000000
 50
-73.742975
 51
-5.000020
  0
LINE
  8
1
 62
7
  6
CONTINUOUS
 10
67.775873
 20
164.302750
 11
67.849999
 21
165.149999
  0
ARC
  8
1
 62
7
  6
CONTINUOUS
 10
63.420319
 20
164.389905
 40
1.000000
 50
-174.999980
 51
-106.257025
  0
ARC
  8
1
 62
7
  6
CONTINUOUS
 10
65.099999
 20
170.149998
 40
7.000000
 50
-106.257019
 51
-73.742981
  0
LINE
  8
1
 62
7
  6
CONTINUOUS
 10
62.424125
 20
164.302750
 11
62.349999
 21
165.149999
  0
LINE
  8
1
 62
7
  6
CONTINUOUS
 10
66.095856
 20
163.985621
 11
65.099999
 21
163.149999
  0
LINE
  8
1
 62
7
  6
CONTINUOUS
 10
65.099999
 20
163.149996
 11
64.104137
 21
163.985623
  0
LINE
  8
1
 62
7
  6
CONTINUOUS
 10
100.349998
 20
165.149999
 11
94.849999
 21
165.149999
  0
ARC
  8
1
 62
7
  6
CONTINUOUS
 10
99.279678
 20
164.389905
 40
1.000000
 50
-73.742975
 51
-5.000020
  0
LINE
  8
1
 62
7
  6
CONTINUOUS
 10
100.275873
 20
164.302750
 11
100.349998
 21
165.149999
  0
ARC
  8
1
 62
7
  6
CONTINUOUS
 10
95.920319
 20
164.389905
 40
1.000000
 50
-174.999980
 51
-106.257025
  0
ARC
  8
1
 62
7
  6
CONTINUOUS
 10
97.599999
 20
170.149998
 40
7.000000
 50
-106.257019
 51
-73.742981
  0
LINE
  8
1
 62
7
  6
CONTINUOUS
 10
94.924124
 20
164.302750
 11
94.849999
 21
165.149999
  0
LINE
  8
1
 62
7
  6
CONTINUOUS
 10
98.595855
 20
163.985621
 11
97.599999
 21
163.149999
  0
LINE
  8
1
 62
7
  6
CONTINUOUS
 10
97.599999
 20
163.149996
 11
96.604137
 21
163.985623
  0
LINE
  8
1
 62
7
  6
CONTINUOUS
 10
96.199998
 20
163.291428
 11
96.199998
 21
160.949998
  0
LINE
  8
1
 62
7
  6
CONTINUOUS
 10
66.499999
 20
160.949998
 11
66.499999
 21
163.291428
  0
LINE
  8
1
 62
7
  6
CONTINUOUS
 10
77.599998
 20
224.500000
 11
77.599998
 21
225.700000
  0
LINE
  8
1
 62
7
  6
CONTINUOUS
 10
77.599998
 20
225.700000
 11
85.099999
 21
225.700000
  0
LINE
  8
1
 62
7
  6
CONTINUOUS
 10
85.099999
 20
225.700000
 11
85.099999
 21
224.500000
  0
LINE
  8
1
 62
7
  6
CONTINUOUS
 10
85.099999
 20
225.400001
 11
77.599998
 21
225.400001
  0
LINE
  8
1
 62
7
  6
CONTINUOUS
 10
84.750000
 20
233.400001
 11
77.949998
 21
233.400001
  0
LINE
  8
1
 62
7
  6
CONTINUOUS
 10
84.750000
 20
235.900001
 11
77.949998
 21
235.900001
  0
LINE
  8
1
 62
7
  6
CONTINUOUS
 10
80.449999
 20
226.500001
 11
80.449999
 21
228.700000
  0
LINE
  8
1
 62
7
  6
CONTINUOUS
 10
80.449999
 20
228.700000
 11
77.649999
 21
228.700000
  0
LINE
  8
1
 62
7
  6
CONTINUOUS
 10
77.649999
 20
228.700000
 11
77.649999
 21
226.500001
  0
LINE
  8
1
 62
7
  6
CONTINUOUS
 10
77.649999
 20
226.500001
 11
80.449999
 21
226.500001
  0
LINE
  8
1
 62
7
  6
CONTINUOUS
 10
85.049999
 20
226.500001
 11
85.049999
 21
228.700000
  0
LINE
  8
1
 62
7
  6
CONTINUOUS
 10
85.049999
 20
228.700000
 11
82.249998
 21
228.700000
  0
LINE
  8
1
 62
7
  6
CONTINUOUS
 10
82.249998
 20
228.700000
 11
82.249998
 21
226.500001
  0
LINE
  8
1
 62
7
  6
CONTINUOUS
 10
82.249998
 20
226.500001
 11
85.049999
 21
226.500001
  0
LINE
  8
1
 62
7
  6
CONTINUOUS
 10
78.549999
 20
235.900001
 11
78.549999
 21
238.500000
  0
LINE
  8
1
 62
7
  6
CONTINUOUS
 10
78.549999
 20
238.500000
 11
79.149999
 21
238.500000
  0
LINE
  8
1
 62
7
  6
CONTINUOUS
 10
79.149999
 20
238.500000
 11
79.149999
 21
235.900001
  0
LINE
  8
1
 62
7
  6
CONTINUOUS
 10
81.049999
 20
235.900001
 11
81.049999
 21
238.500000
  0
LINE
  8
1
 62
7
  6
CONTINUOUS
 10
81.049999
 20
238.500000
 11
81.649999
 21
238.500000
  0
LINE
  8
1
 62
7
  6
CONTINUOUS
 10
81.649999
 20
238.500000
 11
81.649999
 21
235.900001
  0
LINE
  8
1
 62
7
  6
CONTINUOUS
 10
83.549999
 20
235.900001
 11
83.549999
 21
238.500000
  0
LINE
  8
1
 62
7
  6
CONTINUOUS
 10
83.549999
 20
238.500000
 11
84.149998
 21
238.500000
  0
LINE
  8
1
 62
7
  6
CONTINUOUS
 10
84.149998
 20
238.500000
 11
84.149998
 21
235.900001
  0
LINE
  8
1
 62
7
  6
CONTINUOUS
 10
77.949998
 20
241.700001
 11
84.750000
 21
241.700001
  0
ARC
  8
1
 62
7
  6
CONTINUOUS
 10
70.499999
 20
228.500001
 40
1.000000
 50
90.000000
 51
180.000000
  0
ARC
  8
1
 62
7
  6
CONTINUOUS
 10
92.199999
 20
228.500001
 40
1.000000
 50
0.000000
 51
90.000000
  0
ARC
  8
1
 62
7
  6
CONTINUOUS
 10
70.499999
 20
240.700003
 40
1.000000
 50
90.000000
 51
180.000000
  0
LINE
  8
1
 62
7
  6
CONTINUOUS
 10
69.499999
 20
224.500001
 11
69.499999
 21
240.700003
  0
ARC
  8
1
 62
7
  6
CONTINUOUS
 10
92.199999
 20
240.700003
 40
1.000000
 50
0.000000
 51
90.000000
  0
LINE
  8
1
 62
7
  6
CONTINUOUS
 10
70.499999
 20
241.700003
 11
92.199999
 21
241.700003
  0
LINE
  8
1
 62
7
  6
CONTINUOUS
 10
93.199999
 20
240.700003
 11
93.199999
 21
224.500001
  0
LINE
  8
1
 62
7
  6
CONTINUOUS
 10
70.499999
 20
229.500001
 11
75.349998
 21
229.500001
  0
LINE
  8
1
 62
7
  6
CONTINUOUS
 10
75.349998
 20
224.500001
 11
75.349998
 21
229.500001
  0
LINE
  8
1
 62
7
  6
CONTINUOUS
 10
87.349999
 20
224.500001
 11
87.349999
 21
229.500001
  0
LINE
  8
1
 62
7
  6
CONTINUOUS
 10
87.349999
 20
229.500001
 11
92.199999
 21
229.500001
  0
ARC
  8
1
 62
7
  6
CONTINUOUS
 10
78.949998
 20
240.700001
 40
1.000000
 50
90.000000
 51
180.000000
  0
LINE
  8
1
 62
7
  6
CONTINUOUS
 10
77.949998
 20
233.400001
 11
77.949998
 21
240.700001
  0
ARC
  8
1
 62
7
  6
CONTINUOUS
 10
83.750000
 20
240.700001
 40
1.000000
 50
0.000000
 51
90.000000
  0
LINE
  8
1
 62
7
  6
CONTINUOUS
 10
84.750000
 20
240.700001
 11
84.750000
 21
233.400001
  0
ARC
  8
1
 62
7
  6
CONTINUOUS
 10
73.349999
 20
260.399999
 40
1.000000
 50
90.000000
 51
180.000000
  0
ARC
  8
1
 62
7
  6
CONTINUOUS
 10
73.349999
 20
253.800000
 40
1.000000
 50
180.000000
 51
-90.000000
  0
LINE
  8
1
 62
7
  6
CONTINUOUS
 10
72.349999
 20
253.800000
 11
72.349999
 21
260.399999
  0
ARC
  8
1
 62
7
  6
CONTINUOUS
 10
89.350001
 20
253.800000
 40
1.000000
 50
-90.000000
 51
0.000000
  0
LINE
  8
1
 62
7
  6
CONTINUOUS
 10
89.350001
 20
252.800000
 11
73.349999
 21
252.800000
  0
ARC
  8
1
 62
7
  6
CONTINUOUS
 10
89.350001
 20
260.399999
 40
1.000000
 50
0.000000
 51
90.000000
  0
LINE
  8
1
 62
7
  6
CONTINUOUS
 10
90.350001
 20
260.399999
 11
90.350001
 21
253.800000
  0
LINE
  8
1
 62
7
  6
CONTINUOUS
 10
73.349999
 20
261.399999
 11
89.350001
 21
261.399999
  0
ARC
  8
1
 62
7
  6
CONTINUOUS
 10
62.699999
 20
263.799999
 40
2.000000
 50
90.000000
 51
180.000000
  0
ARC
  8
1
 62
7
  6
CONTINUOUS
 10
62.699999
 20
226.500001
 40
2.000000
 50
180.000000
 51
-90.000000
  0
LINE
  8
1
 62
7
  6
CONTINUOUS
 10
60.699999
 20
226.500001
 11
60.699999
 21
263.799999
  0
ARC
  8
1
 62
7
  6
CONTINUOUS
 10
99.999999
 20
226.500001
 40
2.000000
 50
-90.000000
 51
0.000000
  0
LINE
  8
1
 62
7
  6
CONTINUOUS
 10
99.999999
 20
224.500001
 11
62.699999
 21
224.500001
  0
ARC
  8
1
 62
7
  6
CONTINUOUS
 10
99.999999
 20
263.799999
 40
2.000000
 50
0.000000
 51
90.000000
  0
LINE
  8
1
 62
7
  6
CONTINUOUS
 10
101.999999
 20
263.799999
 11
101.999999
 21
226.500001
  0
LINE
  8
1
 62
7
  6
CONTINUOUS
 10
99.999999
 20
265.799999
 11
62.699999
 21
265.799999
  0
ARC
  8
1
 62
7
  6
CONTINUOUS
 10
62.699999
 20
182.899998
 40
2.000000
 50
90.000000
 51
180.000000
  0
LINE
  8
1
 62
7
  6
CONTINUOUS
 10
60.699999
 20
165.149999
 11
60.699999
 21
182.899998
  0
ARC
  8
1
 62
7
  6
CONTINUOUS
 10
99.999999
 20
182.899998
 40
2.000000
 50
0.000000
 51
90.000000
  0
LINE
  8
1
 62
7
  6
CONTINUOUS
 10
62.699999
 20
184.899998
 11
99.999999
 21
184.899998
  0
LINE
  8
1
 62
7
  6
CONTINUOUS
 10
101.999999
 20
165.149999
 11
101.999999
 21
182.899998
  0
ARC
  8
1
 62
7
  6
CONTINUOUS
 10
62.699999
 20
83.799999
 40
2.000000
 50
90.000000
 51
180.000000
  0
ARC
  8
1
 62
7
  6
CONTINUOUS
 10
62.699999
 20
46.499999
 40
2.000000
 50
180.000000
 51
-90.000000
  0
LINE
  8
1
 62
7
  6
CONTINUOUS
 10
60.699999
 20
46.499999
 11
60.699999
 21
83.799999
  0
ARC
  8
1
 62
7
  6
CONTINUOUS
 10
99.999999
 20
46.499999
 40
2.000000
 50
-90.000000
 51
0.000000
  0
LINE
  8
1
 62
7
  6
CONTINUOUS
 10
62.699999
 20
44.499999
 11
99.999999
 21
44.499999
  0
ARC
  8
1
 62
7
  6
CONTINUOUS
 10
99.999999
 20
83.799999
 40
2.000000
 50
0.000000
 51
90.000000
  0
LINE
  8
1
 62
7
  6
CONTINUOUS
 10
101.999999
 20
46.499999
 11
101.999999
 21
83.799999
  0
LINE
  8
1
 62
7
  6
CONTINUOUS
 10
99.999999
 20
85.799999
 11
62.699999
 21
85.799999
  0
CIRCLE
  8
1
 62
7
  6
CONTINUOUS
 10
65.100001
 20
180.499997
 40
2.000000
  0
CIRCLE
  8
1
 62
7
  6
CONTINUOUS
 10
97.599999
 20
180.499997
 40
2.000000
  0
LINE
  8
2
 62
7
  6
CONTINUOUS
 10
81.350000
 20
43.150000
 11
81.350000
 21
87.150000
  0
LINE
  8
2
 62
7
  6
CONTINUOUS
 10
103.350000
 20
65.150000
 11
59.349999
 21
65.150000
  0
LINE
  8
2
 62
7
  6
CONTINUOUS
 10
60.349999
 20
65.150000
 11
102.350000
 21
65.150000
  0
LINE
  8
2
 62
7
  6
CONTINUOUS
 10
81.350000
 20
44.150000
 11
81.350000
 21
86.150000
  0
LINE
  8
2
 62
7
  6
CONTINUOUS
 10
65.999999
 20
63.650000
 11
96.700000
 21
63.650000
  0
CIRCLE
  8
2
 62
7
  6
CONTINUOUS
 10
81.350000
 20
63.650000
 40
4.869000
  0
LINE
  8
2
 62
7
  6
CONTINUOUS
 10
61.492200
 20
81.399999
 11
68.644199
 21
81.399999
  0
LINE
  8
2
 62
7
  6
CONTINUOUS
 10
65.099999
 20
85.206139
 11
65.099999
 21
77.659338
  0
LINE
  8
2
 62
7
  6
CONTINUOUS
 10
61.492200
 20
48.899999
 11
68.644199
 21
48.899999
  0
LINE
  8
2
 62
7
  6
CONTINUOUS
 10
65.099999
 20
52.706139
 11
65.099999
 21
45.159339
  0
LINE
  8
2
 62
7
  6
CONTINUOUS
 10
93.992200
 20
48.899999
 11
101.144199
 21
48.899999
  0
LINE
  8
2
 62
7
  6
CONTINUOUS
 10
97.599999
 20
52.706139
 11
97.599999
 21
45.159339
  0
LINE
  8
2
 62
7
  6
CONTINUOUS
 10
93.992200
 20
81.399999
 11
101.144199
 21
81.399999
  0
LINE
  8
2
 62
7
  6
CONTINUOUS
 10
97.599999
 20
85.206139
 11
97.599999
 21
77.659338
  0
LINE
  8
2
 62
7
  6
CONTINUOUS
 10
86.219000
 20
151.260080
 11
86.905999
 21
152.449999
  0
LINE
  8
2
 62
7
  6
CONTINUOUS
 10
86.219000
 20
142.918998
 11
86.219000
 21
151.260080
  0
LINE
  8
2
 62
7
  6
CONTINUOUS
 10
81.350000
 20
162.449998
 11
81.350000
 21
137.449998
  0
LINE
  8
2
 62
7
  6
CONTINUOUS
 10
76.480999
 20
151.260080
 11
75.794001
 21
152.449999
  0
LINE
  8
2
 62
7
  6
CONTINUOUS
 10
76.480999
 20
142.918998
 11
76.480999
 21
151.260080
  0
LINE
  8
2
 62
7
  6
CONTINUOUS
 10
81.350000
 20
167.649999
 11
81.350000
 21
157.949998
  0
LINE
  8
2
 62
7
  6
CONTINUOUS
 10
85.549999
 20
175.999998
 11
77.150000
 21
175.999998
  0
LINE
  8
2
 62
7
  6
CONTINUOUS
 10
83.849999
 20
174.749998
 11
83.849999
 21
177.249998
  0
LINE
  8
2
 62
7
  6
CONTINUOUS
 10
78.850000
 20
174.749998
 11
78.850000
 21
177.249998
  0
LINE
  8
2
 62
7
  6
CONTINUOUS
 10
68.100000
 20
180.499997
 11
62.100001
 21
180.499997
  0
LINE
  8
2
 62
7
  6
CONTINUOUS
 10
65.100001
 20
177.499998
 11
65.100001
 21
183.499997
  0
LINE
  8
2
 62
7
  6
CONTINUOUS
 10
97.599999
 20
177.499998
 11
97.599999
 21
183.499997
  0
LINE
  8
2
 62
7
  6
CONTINUOUS
 10
94.599999
 20
180.499997
 11
100.599998
 21
180.499997
  0
LINE
  8
2
 62
7
  6
CONTINUOUS
 10
81.350000
 20
185.949997
 11
81.350000
 21
164.949998
  0
LINE
  8
2
 62
7
  6
CONTINUOUS
 10
65.099999
 20
162.005699
 11
65.099999
 21
166.377998
  0
LINE
  8
2
 62
7
  6
CONTINUOUS
 10
97.599999
 20
162.005699
 11
97.599999
 21
166.377998
  0
LINE
  8
2
 62
7
  6
CONTINUOUS
 10
59.349999
 20
245.150000
 11
103.350000
 21
245.150000
  0
LINE
  8
2
 62
7
  6
CONTINUOUS
 10
79.049999
 20
225.500001
 11
79.049999
 21
229.700000
  0
LINE
  8
2
 62
7
  6
CONTINUOUS
 10
83.649999
 20
225.500001
 11
83.649999
 21
229.700000
  0
LINE
  8
2
 62
7
  6
CONTINUOUS
 10
78.849998
 20
234.900001
 11
78.849998
 21
239.500000
  0
LINE
  8
2
 62
7
  6
CONTINUOUS
 10
83.849999
 20
234.900001
 11
83.849999
 21
239.500000
  0
LINE
  8
2
 62
7
  6
CONTINUOUS
 10
81.350000
 20
266.999999
 11
81.350000
 21
223.000000
  0
ARC
  8
2
 62
7
  6
CONTINUOUS
 10
87.280500
 20
253.860850
 40
0.162749
 50
-89.988330
 51
-43.807932
  0
ARC
  8
2
 62
7
  6
CONTINUOUS
 10
87.424650
 20
254.111950
 40
0.162749
 50
-30.973677
 51
28.728525
  0
ARC
  8
2
 62
7
  6
CONTINUOUS
 10
87.220050
 20
255.237249
 40
0.162749
 50
89.977713
 51
137.304027
  0
ARC
  8
2
 62
7
  6
CONTINUOUS
 10
87.075901
 20
254.981499
 40
0.162749
 50
149.049662
 51
-151.248136
  0
ARC
  8
2
 62
7
  6
CONTINUOUS
 10
85.220550
 20
255.237249
 40
0.162749
 50
89.977713
 51
166.754058
  0
ARC
  8
2
 62
7
  6
CONTINUOUS
 10
85.220550
 20
253.860850
 40
0.162749
 50
166.754058
 51
-89.998948
  0
ARC
  8
2
 62
7
  6
CONTINUOUS
 10
85.569300
 20
253.860850
 40
0.162749
 50
-89.988330
 51
-43.807932
  0
ARC
  8
2
 62
7
  6
CONTINUOUS
 10
84.518400
 20
253.860850
 40
0.162749
 50
-89.988330
 51
0.023339
  0
ARC
  8
2
 62
7
  6
CONTINUOUS
 10
84.518400
 20
255.237249
 40
0.162749
 50
0.023339
 51
89.977713
  0
LINE
  8
2
 62
7
  6
CONTINUOUS
 10
86.145901
 20
253.698099
 11
87.280500
 21
253.698099
  0
LINE
  8
2
 62
7
  6
CONTINUOUS
 10
87.396750
 20
253.744600
 11
87.564149
 21
254.028250
  0
LINE
  8
2
 62
7
  6
CONTINUOUS
 10
87.564149
 20
254.195651
 11
87.103800
 21
254.986149
  0
LINE
  8
2
 62
7
  6
CONTINUOUS
 10
87.103800
 20
254.986149
 11
87.234000
 21
255.209349
  0
LINE
  8
2
 62
7
  6
CONTINUOUS
 10
87.234000
 20
255.209349
 11
88.238399
 21
255.209349
  0
LINE
  8
2
 62
7
  6
CONTINUOUS
 10
88.238399
 20
255.209349
 11
88.350001
 21
255.400000
  0
LINE
  8
2
 62
7
  6
CONTINUOUS
 10
88.350001
 20
255.400000
 11
87.220050
 21
255.400000
  0
LINE
  8
2
 62
7
  6
CONTINUOUS
 10
87.103800
 20
255.344200
 11
86.936399
 21
255.065200
  0
LINE
  8
2
 62
7
  6
CONTINUOUS
 10
86.936399
 20
254.907100
 11
87.396750
 21
254.111950
  0
LINE
  8
2
 62
7
  6
CONTINUOUS
 10
87.396750
 20
254.111950
 11
87.261900
 21
253.884100
  0
LINE
  8
2
 62
7
  6
CONTINUOUS
 10
87.261900
 20
253.884100
 11
86.257500
 21
253.884100
  0
LINE
  8
2
 62
7
  6
CONTINUOUS
 10
86.257500
 20
253.884100
 11
86.145901
 21
253.698099
  0
LINE
  8
2
 62
7
  6
CONTINUOUS
 10
85.690200
 20
253.744600
 11
86.643450
 21
255.400000
  0
LINE
  8
2
 62
7
  6
CONTINUOUS
 10
86.643450
 20
255.400000
 11
86.434201
 21
255.400000
  0
LINE
  8
2
 62
7
  6
CONTINUOUS
 10
86.434201
 20
255.400000
 11
85.560000
 21
253.884100
  0
LINE
  8
2
 62
7
  6
CONTINUOUS
 10
85.560000
 20
253.884100
 11
85.248451
 21
253.884100
  0
LINE
  8
2
 62
7
  6
CONTINUOUS
 10
85.248451
 20
253.884100
 11
85.248451
 21
255.209349
  0
LINE
  8
2
 62
7
  6
CONTINUOUS
 10
85.248451
 20
255.209349
 11
85.653001
 21
255.209349
  0
LINE
  8
2
 62
7
  6
CONTINUOUS
 10
85.653001
 20
255.209349
 11
85.653001
 21
255.400000
  0
LINE
  8
2
 62
7
  6
CONTINUOUS
 10
85.653001
 20
255.400000
 11
85.220550
 21
255.400000
  0
LINE
  8
2
 62
7
  6
CONTINUOUS
 10
85.067100
 20
255.274450
 11
85.067100
 21
253.898050
  0
LINE
  8
2
 62
7
  6
CONTINUOUS
 10
85.220550
 20
253.698099
 11
85.569300
 21
253.698099
  0
LINE
  8
2
 62
7
  6
CONTINUOUS
 10
83.281500
 20
253.698099
 11
84.518400
 21
253.698099
  0
LINE
  8
2
 62
7
  6
CONTINUOUS
 10
84.676500
 20
253.860850
 11
84.676500
 21
255.237249
  0
LINE
  8
2
 62
7
  6
CONTINUOUS
 10
84.518400
 20
255.400000
 11
83.495400
 21
255.400000
  0
LINE
  8
2
 62
7
  6
CONTINUOUS
 10
83.555851
 20
254.507200
 11
83.802300
 21
254.507200
  0
LINE
  8
2
 62
7
  6
CONTINUOUS
 10
83.802300
 20
254.507200
 11
83.802300
 21
254.693200
  0
LINE
  8
2
 62
7
  6
CONTINUOUS
 10
83.802300
 20
254.693200
 11
83.616300
 21
254.693200
  0
LINE
  8
2
 62
7
  6
CONTINUOUS
 10
83.518650
 20
255.209349
 11
84.495149
 21
255.209349
  0
LINE
  8
2
 62
7
  6
CONTINUOUS
 10
84.495149
 20
255.209349
 11
84.495149
 21
253.884100
  0
LINE
  8
2
 62
7
  6
CONTINUOUS
 10
84.495149
 20
253.884100
 11
83.281500
 21
253.884100
  0
LINE
  8
2
 62
7
  6
CONTINUOUS
 10
86.294699
 20
253.791100
 11
87.313051
 21
253.791100
  0
LINE
  8
2
 62
7
  6
CONTINUOUS
 10
87.313051
 20
253.791100
 11
87.494400
 21
254.135200
  0
LINE
  8
2
 62
7
  6
CONTINUOUS
 10
87.494400
 20
254.135200
 11
87.006150
 21
254.981499
  0
LINE
  8
2
 62
7
  6
CONTINUOUS
 10
87.006150
 20
254.981499
 11
87.192151
 21
255.302350
  0
LINE
  8
2
 62
7
  6
CONTINUOUS
 10
87.192151
 20
255.302350
 11
88.210501
 21
255.307000
  0
LINE
  8
2
 62
7
  6
CONTINUOUS
 10
86.513250
 20
255.334900
 11
85.620451
 21
253.795749
  0
LINE
  8
2
 62
7
  6
CONTINUOUS
 10
85.620451
 20
253.795749
 11
85.169400
 21
253.795749
  0
LINE
  8
2
 62
7
  6
CONTINUOUS
 10
85.169400
 20
253.795749
 11
85.174050
 21
255.293050
  0
LINE
  8
2
 62
7
  6
CONTINUOUS
 10
85.174050
 20
255.293050
 11
85.592550
 21
255.283750
  0
LINE
  8
2
 62
7
  6
CONTINUOUS
 10
83.360550
 20
253.786449
 11
84.588151
 21
253.781800
  0
LINE
  8
2
 62
7
  6
CONTINUOUS
 10
84.588151
 20
253.781800
 11
84.583500
 21
255.302350
  0
LINE
  8
2
 62
7
  6
CONTINUOUS
 10
84.583500
 20
255.302350
 11
83.421000
 21
255.297700
  0
ARC
  8
2
 62
7
  6
CONTINUOUS
 10
80.519400
 20
255.307000
 40
0.093000
 50
89.977713
 51
179.989383
  0
ARC
  8
2
 62
7
  6
CONTINUOUS
 10
80.519400
 20
254.497900
 40
0.093000
 50
180.000000
 51
-89.988330
  0
ARC
  8
2
 62
7
  6
CONTINUOUS
 10
79.501050
 20
253.860850
 40
0.162749
 50
-170.259717
 51
-89.988330
  0
ARC
  8
2
 62
7
  6
CONTINUOUS
 10
79.877700
 20
253.860850
 40
0.162749
 50
-89.988330
 51
0.023339
  0
ARC
  8
2
 62
7
  6
CONTINUOUS
 10
79.119750
 20
255.237249
 40
0.162749
 50
23.629200
 51
89.977713
  0
ARC
  8
2
 62
7
  6
CONTINUOUS
 10
78.961650
 20
255.237249
 40
0.162749
 50
89.977713
 51
170.249100
  0
ARC
  8
2
 62
7
  6
CONTINUOUS
 10
78.199050
 20
253.860850
 40
0.162749
 50
180.000000
 51
-89.988330
  0
ARC
  8
2
 62
7
  6
CONTINUOUS
 10
78.580350
 20
253.860850
 40
0.162749
 50
-89.988330
 51
-9.716943
  0
ARC
  8
2
 62
7
  6
CONTINUOUS
 10
74.925449
 20
253.860850
 40
0.162749
 50
-89.988330
 51
-43.807932
  0
ARC
  8
2
 62
7
  6
CONTINUOUS
 10
74.576700
 20
255.237249
 40
0.162749
 50
89.977713
 51
166.754058
  0
ARC
  8
2
 62
7
  6
CONTINUOUS
 10
74.576700
 20
253.860850
 40
0.162749
 50
166.754058
 51
-89.998948
  0
LINE
  8
2
 62
7
  6
CONTINUOUS
 10
81.123899
 20
255.400000
 11
80.519400
 21
255.400000
  0
LINE
  8
2
 62
7
  6
CONTINUOUS
 10
80.426400
 20
255.307000
 11
80.426400
 21
254.497900
  0
LINE
  8
2
 62
7
  6
CONTINUOUS
 10
80.519400
 20
254.404900
 11
81.123899
 21
254.404900
  0
LINE
  8
2
 62
7
  6
CONTINUOUS
 10
81.100649
 20
255.279100
 11
80.547300
 21
255.279100
  0
LINE
  8
2
 62
7
  6
CONTINUOUS
 10
80.547300
 20
255.279100
 11
80.547300
 21
254.525800
  0
LINE
  8
2
 62
7
  6
CONTINUOUS
 10
80.547300
 20
254.525800
 11
81.100649
 21
254.525800
  0
LINE
  8
2
 62
7
  6
CONTINUOUS
 10
79.501050
 20
253.698099
 11
79.877700
 21
253.698099
  0
LINE
  8
2
 62
7
  6
CONTINUOUS
 10
80.040449
 20
253.860850
 11
80.040449
 21
255.400000
  0
LINE
  8
2
 62
7
  6
CONTINUOUS
 10
80.040449
 20
255.400000
 11
79.854449
 21
255.400000
  0
LINE
  8
2
 62
7
  6
CONTINUOUS
 10
79.854449
 20
255.400000
 11
79.854449
 21
253.884100
  0
LINE
  8
2
 62
7
  6
CONTINUOUS
 10
79.854449
 20
253.884100
 11
79.519649
 21
253.884100
  0
LINE
  8
2
 62
7
  6
CONTINUOUS
 10
79.519649
 20
253.884100
 11
79.268549
 21
255.302350
  0
LINE
  8
2
 62
7
  6
CONTINUOUS
 10
79.119750
 20
255.400000
 11
78.961650
 21
255.400000
  0
LINE
  8
2
 62
7
  6
CONTINUOUS
 10
78.803549
 20
255.260499
 11
78.561749
 21
253.884100
  0
LINE
  8
2
 62
7
  6
CONTINUOUS
 10
78.561749
 20
253.884100
 11
78.226949
 21
253.884100
  0
LINE
  8
2
 62
7
  6
CONTINUOUS
 10
78.226949
 20
253.884100
 11
78.226949
 21
255.400000
  0
LINE
  8
2
 62
7
  6
CONTINUOUS
 10
78.226949
 20
255.400000
 11
78.036299
 21
255.400000
  0
LINE
  8
2
 62
7
  6
CONTINUOUS
 10
78.036299
 20
255.400000
 11
78.036299
 21
253.860850
  0
LINE
  8
2
 62
7
  6
CONTINUOUS
 10
78.199050
 20
253.698099
 11
78.580350
 21
253.698099
  0
LINE
  8
2
 62
7
  6
CONTINUOUS
 10
77.468999
 20
253.698099
 11
77.654999
 21
253.698099
  0
LINE
  8
2
 62
7
  6
CONTINUOUS
 10
77.654999
 20
253.698099
 11
77.654999
 21
255.400000
  0
LINE
  8
2
 62
7
  6
CONTINUOUS
 10
77.654999
 20
255.400000
 11
77.468999
 21
255.400000
  0
LINE
  8
2
 62
7
  6
CONTINUOUS
 10
77.468999
 20
255.400000
 11
77.468999
 21
253.698099
  0
LINE
  8
2
 62
7
  6
CONTINUOUS
 10
76.743599
 20
253.698099
 11
76.980749
 21
253.698099
  0
LINE
  8
2
 62
7
  6
CONTINUOUS
 10
76.980749
 20
253.698099
 11
76.246050
 21
254.632750
  0
LINE
  8
2
 62
7
  6
CONTINUOUS
 10
76.246050
 20
254.632750
 11
76.585499
 21
255.209349
  0
LINE
  8
2
 62
7
  6
CONTINUOUS
 10
76.585499
 20
255.209349
 11
77.083050
 21
255.209349
  0
LINE
  8
2
 62
7
  6
CONTINUOUS
 10
77.083050
 20
255.209349
 11
77.083050
 21
255.400000
  0
LINE
  8
2
 62
7
  6
CONTINUOUS
 10
77.083050
 20
255.400000
 11
76.483199
 21
255.400000
  0
LINE
  8
2
 62
7
  6
CONTINUOUS
 10
76.483199
 20
255.400000
 11
75.502050
 21
253.698099
  0
LINE
  8
2
 62
7
  6
CONTINUOUS
 10
75.502050
 20
253.698099
 11
75.715949
 21
253.698099
  0
LINE
  8
2
 62
7
  6
CONTINUOUS
 10
75.715949
 20
253.698099
 11
76.153050
 21
254.456051
  0
LINE
  8
2
 62
7
  6
CONTINUOUS
 10
76.153050
 20
254.456051
 11
76.743599
 21
253.698099
  0
LINE
  8
2
 62
7
  6
CONTINUOUS
 10
74.576700
 20
253.698099
 11
74.925449
 21
253.698099
  0
LINE
  8
2
 62
7
  6
CONTINUOUS
 10
75.041699
 20
253.744600
 11
75.999600
 21
255.400000
  0
LINE
  8
2
 62
7
  6
CONTINUOUS
 10
75.999600
 20
255.400000
 11
75.785699
 21
255.400000
  0
LINE
  8
2
 62
7
  6
CONTINUOUS
 10
75.785699
 20
255.400000
 11
74.911499
 21
253.884100
  0
LINE
  8
2
 62
7
  6
CONTINUOUS
 10
74.911499
 20
253.884100
 11
74.604600
 21
253.884100
  0
LINE
  8
2
 62
7
  6
CONTINUOUS
 10
74.604600
 20
253.884100
 11
74.604600
 21
255.209349
  0
LINE
  8
2
 62
7
  6
CONTINUOUS
 10
74.604600
 20
255.209349
 11
75.009150
 21
255.209349
  0
LINE
  8
2
 62
7
  6
CONTINUOUS
 10
75.009150
 20
255.209349
 11
75.009150
 21
255.400000
  0
LINE
  8
2
 62
7
  6
CONTINUOUS
 10
75.009150
 20
255.400000
 11
74.576700
 21
255.400000
  0
LINE
  8
2
 62
7
  6
CONTINUOUS
 10
74.418599
 20
255.274450
 11
74.418599
 21
253.898050
  0
LINE
  8
2
 62
7
  6
CONTINUOUS
 10
79.152299
 20
254.930350
 11
79.342950
 21
253.832949
  0
LINE
  8
2
 62
7
  6
CONTINUOUS
 10
78.933749
 20
254.921050
 11
78.733800
 21
253.832949
  0
LINE
  8
2
 62
7
  6
CONTINUOUS
 10
79.152299
 20
254.930350
 11
79.040699
 21
255.214000
  0
LINE
  8
2
 62
7
  6
CONTINUOUS
 10
79.040699
 20
255.214000
 11
78.933749
 21
254.921050
  0
LINE
  8
2
 62
7
  6
CONTINUOUS
 10
79.966049
 20
255.344200
 11
79.961399
 21
253.818999
  0
LINE
  8
2
 62
7
  6
CONTINUOUS
 10
79.961399
 20
253.818999
 11
79.435949
 21
253.823649
  0
LINE
  8
2
 62
7
  6
CONTINUOUS
 10
79.435949
 20
253.823649
 11
79.152299
 21
255.288400
  0
LINE
  8
2
 62
7
  6
CONTINUOUS
 10
79.152299
 20
255.288400
 11
78.929099
 21
255.288400
  0
LINE
  8
2
 62
7
  6
CONTINUOUS
 10
78.929099
 20
255.288400
 11
78.622200
 21
253.800399
  0
LINE
  8
2
 62
7
  6
CONTINUOUS
 10
78.622200
 20
253.800399
 11
78.119999
 21
253.795749
  0
LINE
  8
2
 62
7
  6
CONTINUOUS
 10
78.119999
 20
253.795749
 11
78.115350
 21
255.330250
  0
LINE
  8
2
 62
7
  6
CONTINUOUS
 10
77.557350
 20
253.777150
 11
77.562000
 21
255.334900
  0
LINE
  8
2
 62
7
  6
CONTINUOUS
 10
76.817999
 20
253.758550
 11
76.153050
 21
254.586251
  0
LINE
  8
2
 62
7
  6
CONTINUOUS
 10
75.646200
 20
253.772500
 11
76.534350
 21
255.288400
  0
LINE
  8
2
 62
7
  6
CONTINUOUS
 10
76.534350
 20
255.288400
 11
77.013299
 21
255.293050
  0
LINE
  8
2
 62
7
  6
CONTINUOUS
 10
75.860100
 20
255.344200
 11
74.962650
 21
253.795749
  0
LINE
  8
2
 62
7
  6
CONTINUOUS
 10
74.962650
 20
253.795749
 11
74.520899
 21
253.800399
  0
LINE
  8
2
 62
7
  6
CONTINUOUS
 10
74.520899
 20
253.800399
 11
74.516249
 21
255.302350
  0
LINE
  8
2
 62
7
  6
CONTINUOUS
 10
74.516249
 20
255.302350
 11
74.967300
 21
255.311650
  0
ARC
  8
2
 62
7
  6
CONTINUOUS
 10
83.495400
 20
255.237249
 40
0.162749
 50
89.977713
 51
176.723523
  0
ARC
  8
2
 62
7
  6
CONTINUOUS
 10
83.597699
 20
254.665300
 40
0.162749
 50
176.723523
 51
-104.838555
  0
ARC
  8
2
 62
7
  6
CONTINUOUS
 10
81.663299
 20
254.497900
 40
0.093000
 50
180.000000
 51
-89.988330
  0
LINE
  8
2
 62
7
  6
CONTINUOUS
 10
83.337299
 20
255.246549
 11
83.434951
 21
254.674600
  0
LINE
  8
2
 62
7
  6
CONTINUOUS
 10
83.616300
 20
254.693200
 11
83.518650
 21
255.209349
  0
LINE
  8
2
 62
7
  6
CONTINUOUS
 10
83.281500
 20
253.884100
 11
83.281500
 21
253.698099
  0
LINE
  8
2
 62
7
  6
CONTINUOUS
 10
82.895550
 20
253.698099
 11
82.895550
 21
255.400000
  0
LINE
  8
2
 62
7
  6
CONTINUOUS
 10
82.895550
 20
255.400000
 11
82.709550
 21
255.400000
  0
LINE
  8
2
 62
7
  6
CONTINUOUS
 10
82.709550
 20
255.400000
 11
82.709550
 21
253.698099
  0
LINE
  8
2
 62
7
  6
CONTINUOUS
 10
82.709550
 20
253.698099
 11
82.895550
 21
253.698099
  0
LINE
  8
2
 62
7
  6
CONTINUOUS
 10
82.239900
 20
254.404900
 11
82.360800
 21
254.404900
  0
LINE
  8
2
 62
7
  6
CONTINUOUS
 10
82.360800
 20
254.404900
 11
82.360800
 21
255.400000
  0
LINE
  8
2
 62
7
  6
CONTINUOUS
 10
82.360800
 20
255.400000
 11
82.239900
 21
255.400000
  0
LINE
  8
2
 62
7
  6
CONTINUOUS
 10
82.239900
 20
255.400000
 11
82.239900
 21
254.525800
  0
LINE
  8
2
 62
7
  6
CONTINUOUS
 10
82.239900
 20
254.525800
 11
81.686550
 21
254.525800
  0
LINE
  8
2
 62
7
  6
CONTINUOUS
 10
81.686550
 20
254.525800
 11
81.686550
 21
255.400000
  0
LINE
  8
2
 62
7
  6
CONTINUOUS
 10
81.686550
 20
255.400000
 11
81.570300
 21
255.400000
  0
LINE
  8
2
 62
7
  6
CONTINUOUS
 10
81.570300
 20
255.400000
 11
81.570300
 21
254.497900
  0
LINE
  8
2
 62
7
  6
CONTINUOUS
 10
81.663299
 20
254.404900
 11
81.933001
 21
254.404900
  0
LINE
  8
2
 62
7
  6
CONTINUOUS
 10
82.239900
 20
254.404900
 11
82.239900
 21
254.525800
  0
LINE
  8
2
 62
7
  6
CONTINUOUS
 10
81.933001
 20
254.404900
 11
82.063201
 21
254.525800
  0
LINE
  8
2
 62
7
  6
CONTINUOUS
 10
83.421000
 20
255.297700
 11
83.546550
 21
254.614149
  0
LINE
  8
2
 62
7
  6
CONTINUOUS
 10
83.546550
 20
254.614149
 11
83.732551
 21
254.614149
  0
LINE
  8
2
 62
7
  6
CONTINUOUS
 10
82.802551
 20
253.777150
 11
82.802551
 21
255.330250
  0
ARC
  8
2
 62
7
  6
CONTINUOUS
 10
81.123899
 20
254.497900
 40
0.093000
 50
-89.988330
 51
0.023339
  0
ARC
  8
2
 62
7
  6
CONTINUOUS
 10
81.123899
 20
255.307000
 40
0.093000
 50
0.023339
 51
89.977713
  0
LINE
  8
2
 62
7
  6
CONTINUOUS
 10
81.216899
 20
254.497900
 11
81.216899
 21
255.307000
  0
LINE
  8
2
 62
7
  6
CONTINUOUS
 10
81.100649
 20
254.525800
 11
81.100649
 21
255.279100
  0
TEXT
  8
1
 62
7
  6
CONTINUOUS
 10
79.385800
 20
232.600000
 40
4.000000
 41
0.500000
  1
3
  7
KANJI
 50
180.000000
 51
0.000000
  0
TEXT
  8
1
 62
7
  6
CONTINUOUS
 10
82.785299
 20
232.600000
 40
4.000000
 41
0.500000
  1
2
  7
KANJI
 50
180.000000
 51
0.000000
  0
TEXT
  8
1
 62
7
  6
CONTINUOUS
 10
86.257000
 20
232.600000
 40
4.000000
 41
0.500000
  1
1
  7
KANJI
 50
180.000000
 51
0.000000
  0
TEXT
  8
2
 62
7
  6
CONTINUOUS
 10
115.048600
 20
9.073800
 40
12.000000
 41
0.416667
  1
FSK-A01
  7
KANJI
 50
0.000000
 51
0.000000
  0
TEXT
  8
2
 62
7
  6
CONTINUOUS
 10
75.785714
 20
9.075441
 40
12.000000
 41
0.416667
  1
1:2
  7
KANJI
 50
0.000000
 51
0.000000
  0
LINE
  8
1
 62
7
  6
CONTINUOUS
 10
175.526298
 20
161.013684
 11
175.526298
 21
164.713685
  0
ARC
  8
1
 62
7
  6
CONTINUOUS
 10
177.026297
 20
161.013684
 40
1.500000
 50
180.000000
 51
-90.000000
  0
LINE
  8
1
 62
7
  6
CONTINUOUS
 10
203.726298
 20
159.513686
 11
177.026297
 21
159.513686
  0
ARC
  8
1
 62
7
  6
CONTINUOUS
 10
203.726298
 20
161.013684
 40
1.500000
 50
-90.000000
 51
0.000000
  0
LINE
  8
1
 62
7
  6
CONTINUOUS
 10
209.526299
 20
165.213685
 11
168.226297
 21
165.213685
  0
LINE
  8
1
 62
7
  6
CONTINUOUS
 10
184.376298
 20
159.513686
 11
184.376298
 21
152.513685
  0
LINE
  8
1
 62
7
  6
CONTINUOUS
 10
184.376298
 20
152.513685
 11
196.376298
 21
152.513685
  0
LINE
  8
1
 62
7
  6
CONTINUOUS
 10
196.376298
 20
152.513685
 11
196.376298
 21
159.513686
  0
LINE
  8
1
 62
7
  6
CONTINUOUS
 10
184.376298
 20
158.513684
 11
184.722587
 21
158.776771
  0
LINE
  8
1
 62
7
  6
CONTINUOUS
 10
184.722587
 20
158.776771
 11
185.084111
 21
158.993372
  0
LINE
  8
1
 62
7
  6
CONTINUOUS
 10
185.084111
 20
158.993372
 11
185.457353
 21
159.167006
  0
LINE
  8
1
 62
7
  6
CONTINUOUS
 10
185.457353
 20
159.167006
 11
185.838799
 21
159.301185
  0
LINE
  8
1
 62
7
  6
CONTINUOUS
 10
185.838799
 20
159.301185
 11
186.224930
 21
159.399428
  0
LINE
  8
1
 62
7
  6
CONTINUOUS
 10
186.224930
 20
159.399428
 11
186.612235
 21
159.465248
  0
LINE
  8
1
 62
7
  6
CONTINUOUS
 10
186.612235
 20
159.465248
 11
186.997196
 21
159.502162
  0
LINE
  8
1
 62
7
  6
CONTINUOUS
 10
186.997196
 20
159.502162
 11
187.376298
 21
159.513686
  0
LINE
  8
1
 62
7
  6
CONTINUOUS
 10
187.376298
 20
159.513686
 11
187.755400
 21
159.502162
  0
LINE
  8
1
 62
7
  6
CONTINUOUS
 10
187.755400
 20
159.502162
 11
188.140361
 21
159.465248
  0
LINE
  8
1
 62
7
  6
CONTINUOUS
 10
188.140361
 20
159.465248
 11
188.527666
 21
159.399428
  0
LINE
  8
1
 62
7
  6
CONTINUOUS
 10
188.527666
 20
159.399428
 11
188.913797
 21
159.301185
  0
LINE
  8
1
 62
7
  6
CONTINUOUS
 10
188.913797
 20
159.301185
 11
189.295243
 21
159.167006
  0
LINE
  8
1
 62
7
  6
CONTINUOUS
 10
189.295243
 20
159.167006
 11
189.668485
 21
158.993372
  0
LINE
  8
1
 62
7
  6
CONTINUOUS
 10
189.668485
 20
158.993372
 11
190.030009
 21
158.776771
  0
LINE
  8
1
 62
7
  6
CONTINUOUS
 10
190.030009
 20
158.776771
 11
190.376298
 21
158.513684
  0
LINE
  8
1
 62
7
  6
CONTINUOUS
 10
190.376298
 20
158.513684
 11
190.722586
 21
158.776771
  0
LINE
  8
1
 62
7
  6
CONTINUOUS
 10
190.722586
 20
158.776771
 11
191.084111
 21
158.993372
  0
LINE
  8
1
 62
7
  6
CONTINUOUS
 10
191.084111
 20
158.993372
 11
191.457353
 21
159.167006
  0
LINE
  8
1
 62
7
  6
CONTINUOUS
 10
191.457353
 20
159.167006
 11
191.838798
 21
159.301185
  0
LINE
  8
1
 62
7
  6
CONTINUOUS
 10
191.838798
 20
159.301185
 11
192.224930
 21
159.399428
  0
LINE
  8
1
 62
7
  6
CONTINUOUS
 10
192.224930
 20
159.399428
 11
192.612235
 21
159.465248
  0
LINE
  8
1
 62
7
  6
CONTINUOUS
 10
192.612235
 20
159.465248
 11
192.997196
 21
159.502162
  0
LINE
  8
1
 62
7
  6
CONTINUOUS
 10
192.997196
 20
159.502162
 11
193.376298
 21
159.513686
  0
LINE
  8
1
 62
7
  6
CONTINUOUS
 10
193.376298
 20
159.513686
 11
193.755399
 21
159.502162
  0
LINE
  8
1
 62
7
  6
CONTINUOUS
 10
193.755399
 20
159.502162
 11
194.140360
 21
159.465248
  0
LINE
  8
1
 62
7
  6
CONTINUOUS
 10
194.140360
 20
159.465248
 11
194.527665
 21
159.399428
  0
LINE
  8
1
 62
7
  6
CONTINUOUS
 10
194.527665
 20
159.399428
 11
194.913797
 21
159.301185
  0
LINE
  8
1
 62
7
  6
CONTINUOUS
 10
194.913797
 20
159.301185
 11
195.295242
 21
159.167006
  0
LINE
  8
1
 62
7
  6
CONTINUOUS
 10
195.295242
 20
159.167006
 11
195.668484
 21
158.993372
  0
LINE
  8
1
 62
7
  6
CONTINUOUS
 10
195.668484
 20
158.993372
 11
196.030009
 21
158.776771
  0
LINE
  8
1
 62
7
  6
CONTINUOUS
 10
196.030009
 20
158.776771
 11
196.376298
 21
158.513684
  0
LINE
  8
1
 62
7
  6
CONTINUOUS
 10
184.376298
 20
153.513685
 11
184.722587
 21
153.250598
  0
LINE
  8
1
 62
7
  6
CONTINUOUS
 10
184.722587
 20
153.250598
 11
185.084111
 21
153.033997
  0
LINE
  8
1
 62
7
  6
CONTINUOUS
 10
185.084111
 20
153.033997
 11
185.457353
 21
152.860364
  0
LINE
  8
1
 62
7
  6
CONTINUOUS
 10
185.457353
 20
152.860364
 11
185.838799
 21
152.726185
  0
LINE
  8
1
 62
7
  6
CONTINUOUS
 10
185.838799
 20
152.726185
 11
186.224930
 21
152.627943
  0
LINE
  8
1
 62
7
  6
CONTINUOUS
 10
186.224930
 20
152.627943
 11
186.612235
 21
152.562122
  0
LINE
  8
1
 62
7
  6
CONTINUOUS
 10
186.612235
 20
152.562122
 11
186.997196
 21
152.525208
  0
LINE
  8
1
 62
7
  6
CONTINUOUS
 10
186.997196
 20
152.525208
 11
187.376298
 21
152.513685
  0
LINE
  8
1
 62
7
  6
CONTINUOUS
 10
187.376298
 20
152.513685
 11
187.755400
 21
152.525208
  0
LINE
  8
1
 62
7
  6
CONTINUOUS
 10
187.755400
 20
152.525208
 11
188.140361
 21
152.562122
  0
LINE
  8
1
 62
7
  6
CONTINUOUS
 10
188.140361
 20
152.562122
 11
188.527666
 21
152.627943
  0
LINE
  8
1
 62
7
  6
CONTINUOUS
 10
188.527666
 20
152.627943
 11
188.913797
 21
152.726185
  0
LINE
  8
1
 62
7
  6
CONTINUOUS
 10
188.913797
 20
152.726185
 11
189.295243
 21
152.860364
  0
LINE
  8
1
 62
7
  6
CONTINUOUS
 10
189.295243
 20
152.860364
 11
189.668485
 21
153.033997
  0
LINE
  8
1
 62
7
  6
CONTINUOUS
 10
189.668485
 20
153.033997
 11
190.030009
 21
153.250598
  0
LINE
  8
1
 62
7
  6
CONTINUOUS
 10
190.030009
 20
153.250598
 11
190.376298
 21
153.513685
  0
LINE
  8
1
 62
7
  6
CONTINUOUS
 10
190.376298
 20
153.513685
 11
190.722586
 21
153.250598
  0
LINE
  8
1
 62
7
  6
CONTINUOUS
 10
190.722586
 20
153.250598
 11
191.084111
 21
153.033997
  0
LINE
  8
1
 62
7
  6
CONTINUOUS
 10
191.084111
 20
153.033997
 11
191.457353
 21
152.860364
  0
LINE
  8
1
 62
7
  6
CONTINUOUS
 10
191.457353
 20
152.860364
 11
191.838798
 21
152.726185
  0
LINE
  8
1
 62
7
  6
CONTINUOUS
 10
191.838798
 20
152.726185
 11
192.224930
 21
152.627943
  0
LINE
  8
1
 62
7
  6
CONTINUOUS
 10
192.224930
 20
152.627943
 11
192.612235
 21
152.562122
  0
LINE
  8
1
 62
7
  6
CONTINUOUS
 10
192.612235
 20
152.562122
 11
192.997196
 21
152.525208
  0
LINE
  8
1
 62
7
  6
CONTINUOUS
 10
192.997196
 20
152.525208
 11
193.376298
 21
152.513685
  0
LINE
  8
1
 62
7
  6
CONTINUOUS
 10
193.376298
 20
152.513685
 11
193.755399
 21
152.525208
  0
LINE
  8
1
 62
7
  6
CONTINUOUS
 10
193.755399
 20
152.525208
 11
194.140360
 21
152.562122
  0
LINE
  8
1
 62
7
  6
CONTINUOUS
 10
194.140360
 20
152.562122
 11
194.527665
 21
152.627943
  0
LINE
  8
1
 62
7
  6
CONTINUOUS
 10
194.527665
 20
152.627943
 11
194.913797
 21
152.726185
  0
LINE
  8
1
 62
7
  6
CONTINUOUS
 10
194.913797
 20
152.726185
 11
195.295242
 21
152.860364
  0
LINE
  8
1
 62
7
  6
CONTINUOUS
 10
195.295242
 20
152.860364
 11
195.668484
 21
153.033997
  0
LINE
  8
1
 62
7
  6
CONTINUOUS
 10
195.668484
 20
153.033997
 11
196.030009
 21
153.250598
  0
LINE
  8
1
 62
7
  6
CONTINUOUS
 10
196.030009
 20
153.250598
 11
196.376298
 21
153.513685
  0
LINE
  8
1
 62
7
  6
CONTINUOUS
 10
175.376297
 20
165.213685
 11
169.876298
 21
165.213685
  0
ARC
  8
1
 62
7
  6
CONTINUOUS
 10
174.305977
 20
164.453592
 40
1.000000
 50
-73.742975
 51
-5.000020
  0
LINE
  8
1
 62
7
  6
CONTINUOUS
 10
175.302172
 20
164.366436
 11
175.376297
 21
165.213685
  0
ARC
  8
1
 62
7
  6
CONTINUOUS
 10
170.946618
 20
164.453592
 40
1.000000
 50
-174.999980
 51
-106.257025
  0
ARC
  8
1
 62
7
  6
CONTINUOUS
 10
172.626297
 20
170.213685
 40
7.000000
 50
-106.257019
 51
-73.742981
  0
LINE
  8
1
 62
7
  6
CONTINUOUS
 10
169.950423
 20
164.366436
 11
169.876298
 21
165.213685
  0
LINE
  8
1
 62
7
  6
CONTINUOUS
 10
173.622154
 20
164.049307
 11
172.626297
 21
163.213685
  0
LINE
  8
1
 62
7
  6
CONTINUOUS
 10
172.626297
 20
163.213682
 11
171.630436
 21
164.049309
  0
LINE
  8
1
 62
7
  6
CONTINUOUS
 10
207.876298
 20
165.213685
 11
202.376299
 21
165.213685
  0
ARC
  8
1
 62
7
  6
CONTINUOUS
 10
206.805978
 20
164.453592
 40
1.000000
 50
-73.742975
 51
-5.000020
  0
LINE
  8
1
 62
7
  6
CONTINUOUS
 10
207.802173
 20
164.366436
 11
207.876298
 21
165.213685
  0
ARC
  8
1
 62
7
  6
CONTINUOUS
 10
203.446619
 20
164.453592
 40
1.000000
 50
-174.999980
 51
-106.257025
  0
ARC
  8
1
 62
7
  6
CONTINUOUS
 10
205.126299
 20
170.213685
 40
7.000000
 50
-106.257019
 51
-73.742981
  0
LINE
  8
1
 62
7
  6
CONTINUOUS
 10
202.450424
 20
164.366436
 11
202.376299
 21
165.213685
  0
LINE
  8
1
 62
7
  6
CONTINUOUS
 10
206.122155
 20
164.049307
 11
205.126299
 21
163.213685
  0
LINE
  8
1
 62
7
  6
CONTINUOUS
 10
205.126299
 20
163.213682
 11
204.130437
 21
164.049309
  0
LINE
  8
1
 62
7
  6
CONTINUOUS
 10
205.226298
 20
163.214400
 11
205.226298
 21
161.013684
  0
ARC
  8
1
 62
7
  6
CONTINUOUS
 10
175.026298
 20
164.713685
 40
0.500000
 50
0.000000
 51
47.397455
  0
LINE
  8
1
 62
7
  6
CONTINUOUS
 10
190.376298
 20
158.513684
 11
190.376298
 21
153.513685
  0
ARC
  8
1
 62
7
  6
CONTINUOUS
 10
170.226297
 20
182.963684
 40
2.000000
 50
90.000000
 51
180.000000
  0
LINE
  8
1
 62
7
  6
CONTINUOUS
 10
168.226297
 20
165.213685
 11
168.226297
 21
182.963684
  0
ARC
  8
1
 62
7
  6
CONTINUOUS
 10
207.526299
 20
182.963684
 40
2.000000
 50
0.000000
 51
90.000000
  0
LINE
  8
1
 62
7
  6
CONTINUOUS
 10
170.226297
 20
184.963684
 11
207.526299
 21
184.963684
  0
LINE
  8
1
 62
7
  6
CONTINUOUS
 10
209.526299
 20
165.213685
 11
209.526299
 21
182.963684
  0
LINE
  8
2
 62
7
  6
CONTINUOUS
 10
190.376298
 20
162.513684
 11
190.376298
 21
137.513684
  0
LINE
  8
2
 62
7
  6
CONTINUOUS
 10
185.507298
 20
151.323766
 11
184.820299
 21
152.513685
  0
LINE
  8
2
 62
7
  6
CONTINUOUS
 10
190.376298
 20
167.713685
 11
190.376298
 21
158.013684
  0
LINE
  8
2
 62
7
  6
CONTINUOUS
 10
188.876298
 20
186.013683
 11
188.876298
 21
165.013684
  0
LINE
  8
2
 62
7
  6
CONTINUOUS
 10
172.626297
 20
162.069385
 11
172.626297
 21
166.441685
  0
LINE
  8
2
 62
7
  6
CONTINUOUS
 10
205.126299
 20
162.069385
 11
205.126299
 21
166.441685
  0
ARC
  8
2
 62
7
  6
HIDDEN
 10
181.476298
 20
177.713684
 40
1.000000
 50
90.000000
 51
180.000000
  0
ARC
  8
2
 62
7
  6
HIDDEN
 10
181.476298
 20
167.713685
 40
1.000000
 50
180.000000
 51
-90.000000
  0
LINE
  8
2
 62
7
  6
HIDDEN
 10
180.476298
 20
177.713684
 11
180.476298
 21
167.713685
  0
ARC
  8
2
 62
7
  6
HIDDEN
 10
196.276298
 20
167.713685
 40
1.000000
 50
-90.000000
 51
0.000000
  0
LINE
  8
2
 62
7
  6
HIDDEN
 10
181.476298
 20
166.713685
 11
196.276298
 21
166.713685
  0
ARC
  8
2
 62
7
  6
HIDDEN
 10
196.276298
 20
177.713684
 40
1.000000
 50
0.000000
 51
90.000000
  0
LINE
  8
2
 62
7
  6
HIDDEN
 10
197.276298
 20
167.713685
 11
197.276298
 21
177.713684
  0
LINE
  8
2
 62
7
  6
HIDDEN
 10
196.276298
 20
178.713684
 11
181.476298
 21
178.713684
  0
LINE
  8
1
 62
7
  6
CONTINUOUS
 10
193.143297
 20
138.990685
 11
187.643297
 21
138.990685
  0
LINE
  8
1
 62
7
  6
CONTINUOUS
 10
193.143297
 20
138.990685
 11
194.993297
 21
140.840686
  0
LINE
  8
1
 62
7
  6
CONTINUOUS
 10
194.993297
 20
140.840686
 11
194.993297
 21
142.690686
  0
LINE
  8
1
 62
7
  6
CONTINUOUS
 10
194.993297
 20
142.690686
 11
195.949296
 21
143.646685
  0
LINE
  8
1
 62
7
  6
CONTINUOUS
 10
195.949296
 20
143.646685
 11
195.949296
 21
152.490686
  0
LINE
  8
1
 62
7
  6
CONTINUOUS
 10
187.643297
 20
138.990685
 11
185.793298
 21
140.840686
  0
LINE
  8
1
 62
7
  6
CONTINUOUS
 10
185.793298
 20
140.840686
 11
185.793298
 21
142.690686
  0
LINE
  8
1
 62
7
  6
CONTINUOUS
 10
185.793298
 20
142.690686
 11
184.837298
 21
143.646685
  0
LINE
  8
1
 62
7
  6
CONTINUOUS
 10
184.837298
 20
143.646685
 11
184.837298
 21
152.490686
  0
LINE
  8
1
 62
7
  6
CONTINUOUS
 10
195.949296
 20
151.300767
 11
184.837298
 21
151.300767
  0
LINE
  8
1
 62
7
  6
CONTINUOUS
 10
184.837298
 20
143.646685
 11
195.949296
 21
143.646685
  0
LINE
  8
1
 62
7
  6
CONTINUOUS
 10
194.993297
 20
142.690686
 11
185.793298
 21
142.690686
  0
LINE
  8
1
 62
7
  6
CONTINUOUS
 10
185.793298
 20
140.840686
 11
194.993297
 21
140.840686
  0
LINE
  8
2
 62
7
  6
CONTINUOUS
 10
195.262297
 20
151.300767
 11
195.949296
 21
152.490686
  0
LINE
  8
2
 62
7
  6
CONTINUOUS
 10
195.262297
 20
142.959685
 11
195.262297
 21
151.300767
  0
LINE
  8
2
 62
7
  6
CONTINUOUS
 10
185.524297
 20
151.300767
 11
184.837298
 21
152.490686
  0
LINE
  8
2
 62
7
  6
CONTINUOUS
 10
185.524297
 20
142.959685
 11
185.524297
 21
151.300767
  0
LINE
  8
2
 62
7
  6
CONTINUOUS
 10
63.561378
 20
181.777743
 11
57.281998
 21
192.049999
  0
LINE
  8
2
 62
7
  6
CONTINUOUS
 10
57.281998
 20
192.049999
 11
40.743203
 21
192.049999
  0
TEXT
  8
2
 62
7
  6
CONTINUOUS
 10
40.743203
 20
192.049999
 40
4.000000
 41
1.066667
  1
φ4.0穴
  7
KANJI
 50
0.000000
 51
0.000000
  0
LINE
  8
2
 62
7
  6
CONTINUOUS
 10
63.561378
 20
181.777743
 11
61.387518
 21
183.845189
  0
LINE
  8
2
 62
7
  6
CONTINUOUS
 10
63.561378
 20
181.777743
 11
62.712483
 21
184.655134
  0
LINE
  8
2
 62
7
  6
CONTINUOUS
 10
196.376298
 20
156.304185
 11
210.977775
 21
131.013685
  0
LINE
  8
2
 62
7
  6
CONTINUOUS
 10
210.977775
 20
131.013685
 11
221.501180
 21
131.013685
  0
TEXT
  8
2
 62
7
  6
CONTINUOUS
 10
211.501180
 20
131.013685
 40
4.000000
 41
0.500000
  1
HEX12
  7
KANJI
 50
0.000000
 51
0.000000
  0
LINE
  8
2
 62
7
  6
CONTINUOUS
 10
196.376298
 20
156.304185
 11
198.497618
 21
154.182864
  0
LINE
  8
2
 62
7
  6
CONTINUOUS
 10
196.376298
 20
156.304185
 11
197.152755
 21
153.406407
  0
LINE
  8
2
 62
7
  6
CONTINUOUS
 10
75.794001
 20
149.978997
 11
61.343500
 21
124.949997
  0
LINE
  8
2
 62
7
  6
CONTINUOUS
 10
61.343500
 20
124.949997
 11
96.693130
 21
124.949997
  0
TEXT
  8
2
 62
7
  6
CONTINUOUS
 10
64.693130
 20
124.949997
 40
4.000000
 41
1.000000
  1
7/16-20UNFフレア
  7
KANJI
 50
0.000000
 51
0.000000
  0
LINE
  8
2
 62
7
  6
CONTINUOUS
 10
75.794001
 20
149.978997
 11
75.017543
 21
147.081220
  0
LINE
  8
2
 62
7
  6
CONTINUOUS
 10
75.794001
 20
149.978997
 11
73.672680
 21
147.857677
  0
LINE
  8
2
 62
7
  6
CONTINUOUS
 10
122.999999
 20
159.450000
 11
95.199998
 21
159.450000
  0
LINE
  8
2
 62
7
  6
CONTINUOUS
 10
122.999999
 20
165.149999
 11
102.499999
 21
165.149999
  0
LINE
  8
2
 62
7
  6
CONTINUOUS
 10
121.999999
 20
157.050000
 11
121.999999
 21
167.549999
  0
LINE
  8
2
 62
7
  6
CONTINUOUS
 10
127.999999
 20
138.949998
 11
127.223542
 21
141.847775
  0
LINE
  8
2
 62
7
  6
CONTINUOUS
 10
127.999999
 20
138.949998
 11
128.776456
 21
141.847775
  0
LINE
  8
2
 62
7
  6
CONTINUOUS
 10
127.999999
 20
184.899998
 11
128.776456
 21
182.002220
  0
LINE
  8
2
 62
7
  6
CONTINUOUS
 10
127.999999
 20
184.899998
 11
127.223542
 21
182.002220
  0
LINE
  8
2
 62
7
  6
CONTINUOUS
 10
128.999999
 20
138.949998
 11
84.599999
 21
138.949998
  0
LINE
  8
2
 62
7
  6
CONTINUOUS
 10
128.999999
 20
184.899998
 11
98.099999
 21
184.899998
  0
LINE
  8
2
 62
7
  6
CONTINUOUS
 10
127.999999
 20
138.949998
 11
127.999999
 21
184.899998
  0
LINE
  8
2
 62
7
  6
CONTINUOUS
 10
65.100001
 20
192.899997
 11
67.997778
 21
193.676454
  0
LINE
  8
2
 62
7
  6
CONTINUOUS
 10
65.100001
 20
192.899997
 11
67.997778
 21
192.123540
  0
LINE
  8
2
 62
7
  6
CONTINUOUS
 10
97.599999
 20
192.899997
 11
94.702221
 21
192.123540
  0
LINE
  8
2
 62
7
  6
CONTINUOUS
 10
97.599999
 20
192.899997
 11
94.702221
 21
193.676454
  0
LINE
  8
2
 62
7
  6
CONTINUOUS
 10
65.100001
 20
193.899997
 11
65.100001
 21
180.999997
  0
LINE
  8
2
 62
7
  6
CONTINUOUS
 10
97.599999
 20
193.899997
 11
97.599999
 21
180.999997
  0
LINE
  8
2
 62
7
  6
CONTINUOUS
 10
65.100001
 20
192.899997
 11
97.599999
 21
192.899997
  0
LINE
  8
2
 62
7
  6
CONTINUOUS
 10
121.999999
 20
48.899999
 11
121.223542
 21
51.797777
  0
LINE
  8
2
 62
7
  6
CONTINUOUS
 10
121.999999
 20
48.899999
 11
122.776456
 21
51.797777
  0
LINE
  8
2
 62
7
  6
CONTINUOUS
 10
121.999999
 20
81.399999
 11
122.776456
 21
78.502222
  0
LINE
  8
2
 62
7
  6
CONTINUOUS
 10
121.999999
 20
81.399999
 11
121.223542
 21
78.502222
  0
LINE
  8
2
 62
7
  6
CONTINUOUS
 10
122.999999
 20
48.899999
 11
98.099999
 21
48.899999
  0
LINE
  8
2
 62
7
  6
CONTINUOUS
 10
122.999999
 20
81.399999
 11
98.099999
 21
81.399999
  0
LINE
  8
2
 62
7
  6
CONTINUOUS
 10
121.999999
 20
48.899999
 11
121.999999
 21
81.399999
  0
LINE
  8
2
 62
7
  6
CONTINUOUS
 10
127.999999
 20
44.499999
 11
127.223542
 21
47.397777
  0
LINE
  8
2
 62
7
  6
CONTINUOUS
 10
127.999999
 20
44.499999
 11
128.776456
 21
47.397777
  0
LINE
  8
2
 62
7
  6
CONTINUOUS
 10
127.999999
 20
85.799999
 11
128.776456
 21
82.902222
  0
LINE
  8
2
 62
7
  6
CONTINUOUS
 10
127.999999
 20
85.799999
 11
127.223542
 21
82.902222
  0
LINE
  8
2
 62
7
  6
CONTINUOUS
 10
128.999999
 20
44.499999
 11
98.099999
 21
44.499999
  0
LINE
  8
2
 62
7
  6
CONTINUOUS
 10
128.999999
 20
85.799999
 11
98.099999
 21
85.799999
  0
LINE
  8
2
 62
7
  6
CONTINUOUS
 10
127.999999
 20
44.499999
 11
127.999999
 21
85.799999
  0
LINE
  8
2
 62
7
  6
CONTINUOUS
 10
115.999999
 20
63.650000
 11
116.776457
 21
60.752223
  0
LINE
  8
2
 62
7
  6
CONTINUOUS
 10
115.999999
 20
63.650000
 11
115.223542
 21
60.752223
  0
LINE
  8
2
 62
7
  6
CONTINUOUS
 10
115.999999
 20
65.150000
 11
115.223542
 21
68.047777
  0
LINE
  8
2
 62
7
  6
CONTINUOUS
 10
115.999999
 20
65.150000
 11
116.776457
 21
68.047777
  0
LINE
  8
2
 62
7
  6
CONTINUOUS
 10
116.999999
 20
63.650000
 11
81.850000
 21
63.650000
  0
LINE
  8
2
 62
7
  6
CONTINUOUS
 10
116.999999
 20
65.150000
 11
81.850000
 21
65.150000
  0
TEXT
  8
2
 62
7
  6
CONTINUOUS
 10
213.671266
 20
180.276626
 40
4.000000
 41
1.000000
  1
(本体　黒色)
  7
KANJI
 50
0.000000
 51
0.000000
  0
TEXT
  8
2
 62
7
  6
CONTINUOUS
 10
127.710509
 20
61.709840
 40
4.000000
 41
0.500000
  1
41.3
  7
KANJI
 50
90.000000
 51
0.000000
  0
TEXT
  8
2
 62
7
  6
CONTINUOUS
 10
121.710509
 20
60.962489
 40
4.000000
 41
0.500000
  1
32.5
  7
KANJI
 50
90.000000
 51
0.000000
  0
TEXT
  8
2
 62
7
  6
CONTINUOUS
 10
115.608999
 20
68.705520
 40
4.000000
 41
0.500000
  1
1.5
  7
KANJI
 50
90.000000
 51
0.000000
  0
TEXT
  8
2
 62
7
  6
CONTINUOUS
 10
127.913509
 20
160.653500
 40
4.000000
 41
0.500000
  1
46
  7
KANJI
 50
90.000000
 51
0.000000
  0
TEXT
  8
2
 62
7
  6
CONTINUOUS
 10
121.101509
 20
159.610498
 40
3.600000
 41
0.500000
  1
5.7
  7
KANJI
 50
90.000000
 51
0.000000
  0
LINE
  8
2
 62
7
  6
CONTINUOUS
 10
122.999999
 20
184.899998
 11
98.099999
 21
184.899998
  0
LINE
  8
2
 62
7
  6
CONTINUOUS
 10
115.999999
 20
175.999998
 11
115.223542
 21
178.897775
  0
LINE
  8
2
 62
7
  6
CONTINUOUS
 10
115.999999
 20
175.999998
 11
116.776457
 21
178.897775
  0
LINE
  8
2
 62
7
  6
CONTINUOUS
 10
115.999999
 20
184.899998
 11
116.776457
 21
182.002220
  0
LINE
  8
2
 62
7
  6
CONTINUOUS
 10
115.999999
 20
184.899998
 11
115.223542
 21
182.002220
  0
LINE
  8
2
 62
7
  6
CONTINUOUS
 10
116.999999
 20
175.999998
 11
84.349999
 21
175.999998
  0
LINE
  8
2
 62
7
  6
CONTINUOUS
 10
116.999999
 20
184.899998
 11
98.099999
 21
184.899998
  0
LINE
  8
2
 62
7
  6
CONTINUOUS
 10
115.999999
 20
175.999998
 11
115.999999
 21
184.899998
  0
LINE
  8
2
 62
7
  6
CONTINUOUS
 10
109.999998
 20
180.499997
 11
110.776455
 21
177.602220
  0
LINE
  8
2
 62
7
  6
CONTINUOUS
 10
109.999998
 20
180.499997
 11
109.223541
 21
177.602220
  0
LINE
  8
2
 62
7
  6
CONTINUOUS
 10
109.999998
 20
184.899998
 11
109.223541
 21
187.797775
  0
LINE
  8
2
 62
7
  6
CONTINUOUS
 10
109.999998
 20
184.899998
 11
110.776455
 21
187.797775
  0
LINE
  8
2
 62
7
  6
CONTINUOUS
 10
110.999998
 20
180.499997
 11
98.099999
 21
180.499997
  0
LINE
  8
2
 62
7
  6
CONTINUOUS
 10
110.999998
 20
184.899998
 11
98.099999
 21
184.899998
  0
TEXT
  8
2
 62
7
  6
CONTINUOUS
 10
121.964249
 20
171.155247
 40
4.000000
 41
0.500000
  1
19.8
  7
KANJI
 50
90.000000
 51
0.000000
  0
TEXT
  8
2
 62
7
  6
CONTINUOUS
 10
115.608999
 20
177.318000
 40
4.000000
 41
0.500000
  1
8.9
  7
KANJI
 50
90.000000
 51
0.000000
  0
TEXT
  8
2
 62
7
  6
CONTINUOUS
 10
109.710508
 20
187.651498
 40
4.000000
 41
0.500000
  1
4.4
  7
KANJI
 50
90.000000
 51
0.000000
  0
TEXT
  8
2
 62
7
  6
CONTINUOUS
 10
77.645556
 20
193.166991
 40
4.000000
 41
0.500000
  1
32.2
  7
KANJI
 50
0.000000
 51
0.000000
  0
LINE
  8
2
 62
7
  6
CONTINUOUS
 10
60.699999
 20
99.800000
 11
63.597776
 21
100.576457
  0
LINE
  8
2
 62
7
  6
CONTINUOUS
 10
60.699999
 20
99.800000
 11
63.597776
 21
99.023543
  0
LINE
  8
2
 62
7
  6
CONTINUOUS
 10
101.999999
 20
99.800000
 11
99.102221
 21
99.023543
  0
LINE
  8
2
 62
7
  6
CONTINUOUS
 10
101.999999
 20
99.800000
 11
99.102221
 21
100.576457
  0
LINE
  8
2
 62
7
  6
CONTINUOUS
 10
60.699999
 20
100.800000
 11
60.699999
 21
81.899999
  0
LINE
  8
2
 62
7
  6
CONTINUOUS
 10
101.999999
 20
100.800000
 11
101.999999
 21
81.899999
  0
LINE
  8
2
 62
7
  6
CONTINUOUS
 10
60.699999
 20
99.800000
 11
101.999999
 21
99.800000
  0
LINE
  8
2
 62
7
  6
CONTINUOUS
 10
65.099999
 20
93.799999
 11
67.997776
 21
94.576456
  0
LINE
  8
2
 62
7
  6
CONTINUOUS
 10
65.099999
 20
93.799999
 11
67.997776
 21
93.023541
  0
LINE
  8
2
 62
7
  6
CONTINUOUS
 10
97.599999
 20
93.799999
 11
94.702221
 21
93.023541
  0
LINE
  8
2
 62
7
  6
CONTINUOUS
 10
97.599999
 20
93.799999
 11
94.702221
 21
94.576456
  0
LINE
  8
2
 62
7
  6
CONTINUOUS
 10
65.099999
 20
94.799999
 11
65.099999
 21
81.899999
  0
LINE
  8
2
 62
7
  6
CONTINUOUS
 10
97.599999
 20
94.799999
 11
97.599999
 21
81.899999
  0
LINE
  8
2
 62
7
  6
CONTINUOUS
 10
65.099999
 20
93.799999
 11
97.599999
 21
93.799999
  0
LINE
  8
2
 62
7
  6
CONTINUOUS
 10
66.499999
 20
130.949998
 11
69.397777
 21
131.726455
  0
LINE
  8
2
 62
7
  6
CONTINUOUS
 10
66.499999
 20
130.949998
 11
69.397777
 21
130.173541
  0
LINE
  8
2
 62
7
  6
CONTINUOUS
 10
96.199998
 20
130.949998
 11
93.302221
 21
130.173541
  0
LINE
  8
2
 62
7
  6
CONTINUOUS
 10
96.199998
 20
130.949998
 11
93.302221
 21
131.726455
  0
LINE
  8
2
 62
7
  6
CONTINUOUS
 10
66.499999
 20
129.949998
 11
66.499999
 21
160.449998
  0
LINE
  8
2
 62
7
  6
CONTINUOUS
 10
96.199998
 20
129.949998
 11
96.199998
 21
160.449998
  0
LINE
  8
2
 62
7
  6
CONTINUOUS
 10
66.499999
 20
130.949998
 11
96.199998
 21
130.949998
  0
TEXT
  8
2
 62
7
  6
CONTINUOUS
 10
77.156900
 20
99.886500
 40
4.000000
 41
0.500000
  1
41.3
  7
KANJI
 50
0.000000
 51
0.000000
  0
TEXT
  8
2
 62
7
  6
CONTINUOUS
 10
76.858979
 20
94.089499
 40
4.000000
 41
0.500000
  1
32.5
  7
KANJI
 50
0.000000
 51
0.000000
  0
TEXT
  8
2
 62
7
  6
CONTINUOUS
 10
72.867599
 20
131.137988
 40
4.000000
 41
1.000000
  1
(φ29.7)
  7
KANJI
 50
0.000000
 51
0.000000
  0
LINE
  8
1
 62
7
  6
CONTINUOUS
 10
256.279121
 20
92.145790
 11
256.379121
 21
92.145790
  0
LINE
  8
1
 62
7
  6
CONTINUOUS
 10
256.279121
 20
87.395790
 11
256.379121
 21
87.395790
  0
ARC
  8
1
 62
7
  6
CONTINUOUS
 10
254.429121
 20
91.995790
 40
0.150000
 50
90.000000
 51
180.000000
  0
LINE
  8
1
 62
7
  6
CONTINUOUS
 10
254.429121
 20
92.145790
 11
256.279121
 21
92.145790
  0
ARC
  8
1
 62
7
  6
CONTINUOUS
 10
254.429121
 20
87.545791
 40
0.150000
 50
180.000000
 51
-90.000000
  0
LINE
  8
1
 62
7
  6
CONTINUOUS
 10
254.279121
 20
87.545791
 11
254.279121
 21
91.995790
  0
LINE
  8
1
 62
7
  6
CONTINUOUS
 10
256.279121
 20
87.395790
 11
254.429121
 21
87.395790
  0
LINE
  8
1
 62
7
  6
CONTINUOUS
 10
257.079122
 20
92.145790
 11
257.679121
 21
92.745790
  0
LINE
  8
1
 62
7
  6
CONTINUOUS
 10
257.679121
 20
92.745790
 11
257.679121
 21
92.870790
  0
LINE
  8
1
 62
7
  6
CONTINUOUS
 10
257.679121
 20
92.870790
 11
258.879122
 21
92.870790
  0
LINE
  8
1
 62
7
  6
CONTINUOUS
 10
258.879122
 20
86.670790
 11
257.679121
 21
86.670790
  0
LINE
  8
1
 62
7
  6
CONTINUOUS
 10
257.679121
 20
86.670790
 11
257.679121
 21
86.795789
  0
LINE
  8
1
 62
7
  6
CONTINUOUS
 10
257.679121
 20
86.795789
 11
257.079122
 21
87.395790
  0
LINE
  8
1
 62
7
  6
CONTINUOUS
 10
261.229122
 20
92.770789
 11
261.229122
 21
86.770790
  0
LINE
  8
1
 62
7
  6
CONTINUOUS
 10
258.879122
 20
92.870790
 11
261.229122
 21
92.870790
  0
LINE
  8
1
 62
7
  6
CONTINUOUS
 10
261.229122
 20
92.870790
 11
261.229122
 21
92.770789
  0
LINE
  8
1
 62
7
  6
CONTINUOUS
 10
258.879122
 20
86.670790
 11
261.229122
 21
86.670790
  0
LINE
  8
1
 62
7
  6
CONTINUOUS
 10
261.229122
 20
86.670790
 11
261.229122
 21
86.770790
  0
LINE
  8
1
 62
7
  6
CONTINUOUS
 10
266.229121
 20
91.020789
 11
286.229122
 21
91.020789
  0
LINE
  8
1
 62
7
  6
CONTINUOUS
 10
266.229121
 20
88.520789
 11
286.229122
 21
88.520789
  0
LINE
  8
1
 62
7
  6
CONTINUOUS
 10
286.729122
 20
91.020789
 11
301.229122
 21
91.020789
  0
LINE
  8
1
 62
7
  6
CONTINUOUS
 10
301.229122
 20
88.520789
 11
286.729122
 21
88.520789
  0
LINE
  8
1
 62
7
  6
CONTINUOUS
 10
301.229122
 20
91.020789
 11
301.229122
 21
88.520789
  0
LINE
  8
2
 62
7
  6
CONTINUOUS
 10
256.379121
 20
92.145790
 11
256.579122
 21
92.345789
  0
LINE
  8
2
 62
7
  6
CONTINUOUS
 10
256.579122
 20
92.345789
 11
256.679121
 21
92.245790
  0
LINE
  8
2
 62
7
  6
CONTINUOUS
 10
256.679121
 20
92.245790
 11
256.779121
 21
92.345789
  0
LINE
  8
2
 62
7
  6
CONTINUOUS
 10
256.779121
 20
92.345789
 11
256.979122
 21
92.145790
  0
LINE
  8
2
 62
7
  6
CONTINUOUS
 10
256.979122
 20
92.145790
 11
257.079122
 21
92.145790
  0
LINE
  8
2
 62
7
  6
CONTINUOUS
 10
256.379121
 20
87.395790
 11
256.579122
 21
87.195789
  0
LINE
  8
2
 62
7
  6
CONTINUOUS
 10
256.579122
 20
87.195789
 11
256.679121
 21
87.295791
  0
LINE
  8
2
 62
7
  6
CONTINUOUS
 10
256.679121
 20
87.295791
 11
256.779121
 21
87.195789
  0
LINE
  8
2
 62
7
  6
CONTINUOUS
 10
256.779121
 20
87.195789
 11
256.979122
 21
87.395790
  0
LINE
  8
2
 62
7
  6
CONTINUOUS
 10
257.079122
 20
87.395790
 11
256.979122
 21
87.395790
  0
LINE
  8
2
 62
7
  6
CONTINUOUS
 10
256.379121
 20
92.145790
 11
256.379121
 21
87.395790
  0
LINE
  8
2
 62
7
  6
CONTINUOUS
 10
256.579122
 20
87.195789
 11
256.579122
 21
92.345789
  0
LINE
  8
2
 62
7
  6
CONTINUOUS
 10
256.779121
 20
92.345789
 11
256.779121
 21
87.195789
  0
LINE
  8
2
 62
7
  6
CONTINUOUS
 10
256.979122
 20
87.395790
 11
256.979122
 21
92.145790
  0
LINE
  8
2
 62
7
  6
CONTINUOUS
 10
256.679121
 20
87.295791
 11
256.679121
 21
92.245790
  0
LINE
  8
2
 62
7
  6
CONTINUOUS
 10
256.479122
 20
92.145790
 11
256.479122
 21
87.395790
  0
LINE
  8
2
 62
7
  6
CONTINUOUS
 10
256.879121
 20
87.395790
 11
256.879121
 21
92.145790
  0
LINE
  8
2
 62
7
  6
CONTINUOUS
 10
256.279121
 20
92.145790
 11
256.279121
 21
87.395790
  0
LINE
  8
2
 62
7
  6
CONTINUOUS
 10
256.279121
 20
91.820790
 11
254.279121
 21
91.820790
  0
LINE
  8
2
 62
7
  6
CONTINUOUS
 10
256.279121
 20
90.145790
 11
254.279121
 21
90.145790
  0
LINE
  8
2
 62
7
  6
CONTINUOUS
 10
256.279121
 20
89.395790
 11
254.279121
 21
89.395790
  0
LINE
  8
2
 62
7
  6
CONTINUOUS
 10
256.279121
 20
88.920790
 11
254.279121
 21
88.920790
  0
LINE
  8
2
 62
7
  6
CONTINUOUS
 10
256.279121
 20
87.720790
 11
254.279121
 21
87.720790
  0
LINE
  8
2
 62
7
  6
CONTINUOUS
 10
256.279121
 20
90.620789
 11
254.279121
 21
90.620789
  0
LINE
  8
2
 62
7
  6
CONTINUOUS
 10
257.079122
 20
92.145790
 11
257.079122
 21
87.395790
  0
LINE
  8
2
 62
7
  6
CONTINUOUS
 10
257.079122
 20
92.145790
 11
257.679121
 21
92.145790
  0
LINE
  8
2
 62
7
  6
CONTINUOUS
 10
257.679121
 20
92.145790
 11
257.679121
 21
91.820790
  0
LINE
  8
2
 62
7
  6
CONTINUOUS
 10
257.679121
 20
91.820790
 11
258.879122
 21
91.820790
  0
LINE
  8
2
 62
7
  6
CONTINUOUS
 10
257.079122
 20
87.395790
 11
257.679121
 21
87.395790
  0
LINE
  8
2
 62
7
  6
CONTINUOUS
 10
257.679121
 20
87.395790
 11
257.679121
 21
87.720790
  0
LINE
  8
2
 62
7
  6
CONTINUOUS
 10
257.679121
 20
87.720790
 11
258.879122
 21
87.720790
  0
LINE
  8
2
 62
7
  6
CONTINUOUS
 10
257.879122
 20
87.720790
 11
257.879122
 21
91.820790
  0
LINE
  8
2
 62
7
  6
CONTINUOUS
 10
257.679121
 20
91.820790
 11
257.679121
 21
87.720790
  0
LINE
  8
2
 62
7
  6
CONTINUOUS
 10
258.879122
 20
92.870790
 11
258.879122
 21
86.670790
  0
LINE
  8
2
 62
7
  6
CONTINUOUS
 10
258.879122
 20
92.770789
 11
261.229122
 21
92.770789
  0
LINE
  8
2
 62
7
  6
CONTINUOUS
 10
261.229122
 20
86.770790
 11
258.879122
 21
86.770790
  0
LINE
  8
2
 62
7
  6
CONTINUOUS
 10
260.229122
 20
90.270789
 11
260.729122
 21
90.270789
  0
LINE
  8
2
 62
7
  6
CONTINUOUS
 10
260.729122
 20
90.270789
 11
260.729122
 21
89.270789
  0
LINE
  8
2
 62
7
  6
CONTINUOUS
 10
260.729122
 20
89.270789
 11
260.229122
 21
89.270789
  0
LINE
  8
2
 62
7
  6
CONTINUOUS
 10
260.229122
 20
89.270789
 11
260.229122
 21
90.270789
  0
LINE
  8
2
 62
7
  6
CONTINUOUS
 10
260.629122
 20
90.770789
 11
260.629122
 21
91.520789
  0
LINE
  8
2
 62
7
  6
CONTINUOUS
 10
260.629122
 20
90.770789
 11
259.979122
 21
90.770789
  0
LINE
  8
2
 62
7
  6
CONTINUOUS
 10
259.979122
 20
90.770789
 11
259.979122
 21
90.595789
  0
LINE
  8
2
 62
7
  6
CONTINUOUS
 10
259.979122
 20
90.595789
 11
259.379122
 21
91.145790
  0
LINE
  8
2
 62
7
  6
CONTINUOUS
 10
259.379122
 20
91.145790
 11
259.979122
 21
91.695789
  0
LINE
  8
2
 62
7
  6
CONTINUOUS
 10
259.979122
 20
91.695789
 11
259.979122
 21
91.520789
  0
LINE
  8
2
 62
7
  6
CONTINUOUS
 10
259.979122
 20
91.520789
 11
260.629122
 21
91.520789
  0
LINE
  8
2
 62
7
  6
CONTINUOUS
 10
261.229122
 20
90.020789
 11
266.229121
 21
90.020789
  0
LINE
  8
2
 62
7
  6
CONTINUOUS
 10
266.229121
 20
89.520789
 11
261.229122
 21
89.520789
  0
LINE
  8
2
 62
7
  6
CONTINUOUS
 10
261.229122
 20
91.020789
 11
262.729122
 21
91.020789
  0
LINE
  8
2
 62
7
  6
CONTINUOUS
 10
261.229122
 20
91.520789
 11
262.729122
 21
91.520789
  0
ARC
  8
2
 62
7
  6
CONTINUOUS
 10
262.729122
 20
88.508291
 40
3.012498
 50
50.692333
 51
90.000000
  0
ARC
  8
2
 62
7
  6
CONTINUOUS
 10
266.229121
 20
92.783287
 40
2.512498
 50
-129.307667
 51
-90.000000
  0
ARC
  8
2
 62
7
  6
CONTINUOUS
 10
262.729122
 20
88.508291
 40
2.512498
 50
50.692333
 51
91.596521
  0
ARC
  8
2
 62
7
  6
CONTINUOUS
 10
266.229121
 20
92.783287
 40
3.012498
 50
-129.307667
 51
-113.506845
  0
LINE
  8
2
 62
7
  6
CONTINUOUS
 10
261.229122
 20
88.520789
 11
262.729122
 21
88.520789
  0
LINE
  8
2
 62
7
  6
CONTINUOUS
 10
261.229122
 20
88.020789
 11
262.729122
 21
88.020789
  0
ARC
  8
2
 62
7
  6
CONTINUOUS
 10
262.729122
 20
91.033289
 40
3.012498
 50
-90.000000
 51
-50.692333
  0
ARC
  8
2
 62
7
  6
CONTINUOUS
 10
266.229121
 20
86.758291
 40
2.512498
 50
90.000000
 51
129.307667
  0
ARC
  8
2
 62
7
  6
CONTINUOUS
 10
262.729122
 20
91.033289
 40
2.512498
 50
-91.596521
 51
-50.692333
  0
ARC
  8
2
 62
7
  6
CONTINUOUS
 10
266.229121
 20
86.758291
 40
3.012498
 50
113.506845
 51
129.307667
  0
LINE
  8
2
 62
7
  6
CONTINUOUS
 10
266.229121
 20
91.020789
 11
266.229121
 21
88.520789
  0
ARC
  8
2
 62
7
  6
CONTINUOUS
 10
284.865533
 20
90.395790
 40
1.500000
 50
-24.624317
 51
24.624317
  0
ARC
  8
2
 62
7
  6
CONTINUOUS
 10
287.592712
 20
89.145790
 40
1.500000
 50
155.375683
 51
-155.375683
  0
ARC
  8
2
 62
7
  6
CONTINUOUS
 10
285.365533
 20
90.395790
 40
1.500000
 50
-24.624317
 51
24.624317
  0
ARC
  8
2
 62
7
  6
CONTINUOUS
 10
288.092712
 20
89.145790
 40
1.500000
 50
155.375683
 51
-155.375683
  0
LINE
  8
2
 62
7
  6
CONTINUOUS
 10
253.827621
 20
89.770789
 11
303.142121
 21
89.770789
  0
LINE
  8
2
 62
7
  6
CONTINUOUS
 10
261.424120
 20
69.764789
 11
261.424120
 21
53.764790
  0
LINE
  8
2
 62
7
  6
CONTINUOUS
 10
261.424120
 20
53.764790
 11
301.424121
 21
53.764790
  0
LINE
  8
2
 62
7
  6
CONTINUOUS
 10
301.424121
 20
53.764790
 11
301.424121
 21
69.764789
  0
LINE
  8
2
 62
7
  6
CONTINUOUS
 10
301.424121
 20
69.764789
 11
261.424120
 21
69.764789
  0
LINE
  8
2
 62
7
  6
CONTINUOUS
 10
261.424120
 20
65.764789
 11
301.424121
 21
65.764789
  0
LINE
  8
2
 62
7
  6
CONTINUOUS
 10
301.424121
 20
61.764789
 11
261.424120
 21
61.764789
  0
LINE
  8
2
 62
7
  6
CONTINUOUS
 10
261.424120
 20
57.764789
 11
301.424121
 21
57.764789
  0
LINE
  8
2
 62
7
  6
CONTINUOUS
 10
281.424121
 20
53.764790
 11
281.424121
 21
69.764789
  0
TEXT
  8
2
 62
7
  6
CONTINUOUS
 10
264.012919
 20
95.807379
 40
2.000000
 41
1.000000
  1
白
  7
KANJI
 50
0.000000
 51
0.000000
  0
LINE
  8
2
 62
7
  6
CONTINUOUS
 10
263.066615
 20
89.949532
 11
263.011079
 21
92.806992
  0
LINE
  8
2
 62
7
  6
CONTINUOUS
 10
263.066615
 20
89.949532
 11
264.447249
 21
92.451933
  0
TEXT
  8
2
 62
7
  6
CONTINUOUS
 10
268.775395
 20
95.807379
 40
2.000000
 41
1.000000
  1
黒
  7
KANJI
 50
0.000000
 51
0.000000
  0
LINE
  8
2
 62
7
  6
CONTINUOUS
 10
264.679665
 20
90.984570
 11
265.929989
 21
93.554561
  0
LINE
  8
2
 62
7
  6
CONTINUOUS
 10
264.679665
 20
90.984570
 11
267.047473
 21
92.585086
  0
TEXT
  8
2
 62
7
  6
CONTINUOUS
 10
259.250444
 20
95.807379
 40
2.000000
 41
1.000000
  1
赤
  7
KANJI
 50
0.000000
 51
0.000000
  0
LINE
  8
2
 62
7
  6
CONTINUOUS
 10
262.550362
 20
88.520789
 11
260.980481
 21
90.909019
  0
LINE
  8
2
 62
7
  6
CONTINUOUS
 10
262.550362
 20
88.520789
 11
262.384920
 21
91.373997
  0
CIRCLE
  8
2
 62
7
  6
CONTINUOUS
 10
260.314167
 20
96.970439
 40
2.064645
  0
CIRCLE
  8
2
 62
7
  6
CONTINUOUS
 10
265.034322
 20
96.979085
 40
2.064645
  0
CIRCLE
  8
2
 62
7
  6
CONTINUOUS
 10
269.764970
 20
96.941959
 40
2.064645
  0
LINE
  8
2
 62
7
  6
CONTINUOUS
 10
262.550362
 20
88.520789
 11
260.424038
 21
94.943219
  0
TEXT
  8
2
 62
7
  6
CONTINUOUS
 10
269.943121
 20
62.264789
 40
3.000000
 41
1.066667
  1
①
  7
KANJI
 50
0.000000
 51
0.000000
  0
TEXT
  8
2
 62
7
  6
CONTINUOUS
 10
270.126120
 20
58.264789
 40
3.000000
 41
1.066667
  1
②
  7
KANJI
 50
0.000000
 51
0.000000
  0
TEXT
  8
2
 62
7
  6
CONTINUOUS
 10
270.126120
 20
54.264788
 40
3.000000
 41
1.066667
  1
③
  7
KANJI
 50
0.000000
 51
0.000000
  0
TEXT
  8
2
 62
7
  6
CONTINUOUS
 10
289.911121
 20
62.264789
 40
3.000000
 41
1.066667
  1
赤
  7
KANJI
 50
0.000000
 51
0.000000
  0
TEXT
  8
2
 62
7
  6
CONTINUOUS
 10
290.094121
 20
58.264789
 40
3.000000
 41
1.066667
  1
白
  7
KANJI
 50
0.000000
 51
0.000000
  0
TEXT
  8
2
 62
7
  6
CONTINUOUS
 10
290.094121
 20
54.264788
 40
3.000000
 41
1.066667
  1
黒
  7
KANJI
 50
0.000000
 51
0.000000
  0
TEXT
  8
2
 62
7
  6
CONTINUOUS
 10
264.813121
 20
66.264789
 40
3.000000
 41
1.066667
  1
端子番号
  7
KANJI
 50
0.000000
 51
0.000000
  0
TEXT
  8
2
 62
7
  6
CONTINUOUS
 10
284.507121
 20
66.264789
 40
3.000000
 41
1.066667
  1
電線　色
  7
KANJI
 50
0.000000
 51
0.000000
  0
TEXT
  8
2
 62
7
  6
CONTINUOUS
 10
272.595322
 20
44.642189
 40
4.000000
 41
1.050000
  1
中継電線
  7
KANJI
 50
0.000000
 51
0.000000
  0
TEXT
  8
2
 62
7
  6
CONTINUOUS
 10
290.252121
 20
44.505739
 40
4.000000
 41
0.550000
  1
(FSK-PP01)
  7
KANJI
 50
0.000000
 51
0.000000
  0
LINE
  8
2
 62
7
  6
CONTINUOUS
 10
272.580322
 20
44.049489
 11
312.054766
 21
44.049489
  0
LINE
  8
2
 62
7
  6
CONTINUOUS
 10
261.229122
 20
76.670789
 11
264.126899
 21
77.447246
  0
LINE
  8
2
 62
7
  6
CONTINUOUS
 10
261.229122
 20
76.670789
 11
264.126899
 21
75.894332
  0
LINE
  8
2
 62
7
  6
CONTINUOUS
 10
301.229122
 20
76.670789
 11
298.331345
 21
75.894332
  0
LINE
  8
2
 62
7
  6
CONTINUOUS
 10
301.229122
 20
76.670789
 11
298.331345
 21
77.447246
  0
LINE
  8
2
 62
7
  6
CONTINUOUS
 10
261.229122
 20
75.670789
 11
261.229122
 21
86.170790
  0
LINE
  8
2
 62
7
  6
CONTINUOUS
 10
301.229122
 20
75.670789
 11
301.229122
 21
88.020789
  0
LINE
  8
2
 62
7
  6
CONTINUOUS
 10
261.229122
 20
76.670789
 11
301.229122
 21
76.670789
  0
TEXT
  8
2
 62
7
  6
CONTINUOUS
 10
278.432122
 20
76.843769
 40
4.000000
 41
0.500000
  1
500
  7
KANJI
 50
0.000000
 51
0.000000
  0
LINE
  8
2
 62
7
  6
CONTINUOUS
 10
301.229122
 20
89.071790
 11
306.656793
 21
79.670789
  0
LINE
  8
2
 62
7
  6
CONTINUOUS
 10
306.656793
 20
79.670789
 11
331.893952
 21
79.670789
  0
TEXT
  8
2
 62
7
  6
CONTINUOUS
 10
307.893952
 20
79.670789
 40
4.000000
 41
1.000000
  1
端末切り放し
  7
KANJI
 50
0.000000
 51
0.000000
  0
LINE
  8
2
 62
7
  6
CONTINUOUS
 10
301.229122
 20
89.071790
 11
303.350443
 21
86.950469
  0
LINE
  8
2
 62
7
  6
CONTINUOUS
 10
301.229122
 20
89.071790
 11
302.005579
 21
86.174012
  0
LINE
  8
2
 62
7
  6
CONTINUOUS
 10
283.563621
 20
91.020789
 11
286.941120
 21
96.870790
  0
LINE
  8
2
 62
7
  6
CONTINUOUS
 10
286.941120
 20
96.870790
 11
328.018362
 21
96.870790
  0
TEXT
  8
2
 62
7
  6
CONTINUOUS
 10
288.018362
 20
96.870790
 40
4.000000
 41
1.000000
  1
0.5m㎡ 3芯シールド線
  7
KANJI
 50
0.000000
 51
0.000000
  0
LINE
  8
2
 62
7
  6
CONTINUOUS
 10
283.563621
 20
91.020789
 11
284.340078
 21
93.918567
  0
LINE
  8
2
 62
7
  6
CONTINUOUS
 10
283.563621
 20
91.020789
 11
285.684941
 21
93.142110
  0
LINE
  8
2
 62
7
  6
CONTINUOUS
 10
258.821386
 20
92.870790
 11
253.047884
 21
102.870790
  0
LINE
  8
2
 62
7
  6
CONTINUOUS
 10
253.047884
 20
102.870790
 11
273.967022
 21
102.870790
  0
TEXT
  8
2
 62
7
  6
CONTINUOUS
 10
253.967022
 20
103.734940
 40
4.000000
 41
0.500000
  1
52117-0340
  7
KANJI
 50
0.000000
 51
0.000000
  0
LINE
  8
2
 62
7
  6
CONTINUOUS
 10
258.821386
 20
92.870790
 11
256.700066
 21
94.992111
  0
LINE
  8
2
 62
7
  6
CONTINUOUS
 10
258.821386
 20
92.870790
 11
258.044929
 21
95.768568
  0
TEXT
  8
2
 62
7
  6
CONTINUOUS
 10
253.896341
 20
108.018580
 40
3.000000
 41
1.000000
  1
中継接続用防水コネクタ
  7
KANJI
 50
0.000000
 51
0.000000
  0
TEXT
  8
2
 62
7
  6
CONTINUOUS
 10
255.395611
 20
99.539690
 40
3.000000
 41
1.000000
  1
(日本モレックス製）
  7
KANJI
 50
0.000000
 51
0.000000
  0
LINE
  8
2
 62
7
  6
CONTINUOUS
 10
264.679665
 20
90.984570
 11
268.459987
 21
95.342028
  0
LINE
  8
2
 62
7
  6
CONTINUOUS
 10
263.066615
 20
89.949532
 11
264.325127
 21
95.040063
  0
LINE
  8
2
 62
7
  6
CONTINUOUS
 10
109.999998
 20
176.760210
 11
109.999998
 21
193.699998
  0
TEXT
  8
2
 62
7
  6
CONTINUOUS
 10
120.999999
 20
155.655996
 40
4.000000
 41
0.500000
  1
7
  7
KANJI
 50
90.000000
 51
0.000000
  0
LINE
  8
2
 62
7
  6
CONTINUOUS
 10
121.999999
 20
165.149999
 11
121.999999
 21
189.104982
  0
LINE
  8
2
 62
7
  6
CONTINUOUS
 10
122.730288
 20
187.625471
 11
121.999808
 21
184.899286
  0
LINE
  8
2
 62
7
  6
CONTINUOUS
 10
121.262578
 20
187.641487
 11
121.997348
 21
184.899286
  0
LINE
  8
2
 62
7
  6
CONTINUOUS
 10
123.620765
 20
159.450000
 11
95.199998
 21
159.450000
  0
LINE
  8
2
 62
7
  6
CONTINUOUS
 10
123.523564
 20
152.449999
 11
87.778202
 21
152.449999
  0
LINE
  8
2
 62
7
  6
CONTINUOUS
 10
123.620786
 20
165.149999
 11
102.499999
 21
165.149999
  0
LINE
  8
2
 62
7
  6
CONTINUOUS
 10
115.999999
 20
59.667942
 11
115.999999
 21
74.650000
  0
LINE
  8
2
 62
7
  6
CONTINUOUS
 10
121.999999
 20
147.303361
 11
121.999999
 21
159.518126
  0
LINE
  8
2
 62
7
  6
CONTINUOUS
 10
122.742497
 20
149.677453
 11
121.999996
 21
152.448505
  0
LINE
  8
2
 62
7
  6
CONTINUOUS
 10
121.261530
 20
149.692510
 11
121.999996
 21
152.448505
  0
TEXT
  8
1
 62
7
  6
CONTINUOUS
 10
117.960074
 20
155.473336
 40
8.000000
 41
1.000000
  1
・
  7
KANJI
 50
0.000000
 51
0.000000
  0
TEXT
  8
1
 62
7
  6
CONTINUOUS
 10
117.966149
 20
161.183907
 40
8.000000
 41
1.000000
  1
・
  7
KANJI
 50
0.000000
 51
0.000000
  0
ENDSEC
  0
EOF
