  0
SECTION
  2
HEADER
  9
$ACADVER
  1
AC1003
  9
$INSBASE
 10
0.000000
 20
0.000000
  9
$EXTMIN
 10
0.000000
 20
0.000000
  9
$EXTMAX
 10
630.000000
 20
444.000000
  9
$LIMMIN
 10
0.000000
 20
0.000000
  9
$LIMMAX
 10
630.000000
 20
444.000000
  9
$VIEWCTR
 10
315.000000
 20
222.000000
  9
$VIEWSIZE
 40
444.000000
  9
$PEXTMIN
 10
0.000000
 20
0.000000
 30
0.000000
  9
$PEXTMAX
 10
210.000000
 20
148.000000
 30
0.000000
  9
$SNAPMODE
 70
     0
  9
$SNAPUNIT
 10
1.000000
 20
1.000000
  9
$SNAPBASE
 10
0.000000
 20
0.000000
  9
$SNAPANG
 50
0.000000
  9
$SNAPISOPAIR
 70
     0
  9
$SNAPSTYLE
 70
     0
  9
$GRIDMODE
 70
     0
  9
$GRIDUNIT
 10
0.000000
 20
0.000000
  9
$ORTHOMODE
 70
     0
  9
$REGENMODE
 70
     1
  9
$FILLMODE
 70
     1
  9
$QTEXTMODE
 70
     0
  9
$DRAGMODE
 70
     2
  9
$LTSCALE
 40
0.750000
  9
$OSMODE
 70
     0
  9
$ATTMODE
 70
     1
  9
$TEXTSIZE
 40
18.000000
  9
$TRACEWID
 40
0.050000
  9
$TEXTSTYLE
  7
STANDARD
  9
$CLAYER
  8
0
  9
$CELTYPE
  6
BYLAYER
  9
$CECOLOR
 62
   256
  9
$DIMSCALE
 40
1.000000
  9
$DIMASZ
 40
1.000000
  9
$DIMEXO
 40
0.000000
  9
$DIMDLI
 40
0.500000
  9
$DIMRND
 40
0.000000
  9
$DIMDLE
 40
0.000000
  9
$DIMEXE
 40
0.000000
  9
$DIMTP
 40
0.000000
  9
$DIMTM
 40
0.000000
  9
$DIMTXT
 40
4.000000
  9
$DIMCEN
 40
0.000000
  9
$DIMTSZ
 40
0.000000
  9
$DIMTOL
 70
     0
  9
$DIMLIM
 70
     0
  9
$DIMTIH
 70
     1
  9
$DIMTOH
 70
     1
  9
$DIMSE1
 70
     0
  9
$DIMSE2
 70
     0
  9
$DIMTAD
 70
     0
  9
$DIMZIN
 70
     0
  9
$DIMBLK
  1

  9
$DIMASO
 70
     0
  9
$DIMSHO
 70
     0
  9
$DIMPOST
  1

  9
$DIMAPOST
  1

  9
$DIMALT
 70
     0
  9
$DIMALTD
 70
     0
  9
$DIMALTF
 40
25.400000
  9
$DIMLFAC
 40
1.000000
  9
$DIMTOFL
 70
     0
  9
$DIMTVP
 40
0.000000
  9
$DIMTIX
 70
     0
  9
$DIMSOXD
 70
     0
  9
$DIMSAH
 70
     0
  9
$DIMBLKL
  1

  9
$DIMBLKR
  1

  9
$LUNITS
 70
     2
  9
$LUPREC
 70
     2
  9
$AXISMODE
 70
     0
  9
$AXISUNIT
 10
1.000000
 20
1.000000
  9
$SKETCHINC
 40
0.000000
  9
$FILLETRAD
 40
0.000000
  9
$AUNITS
 70
     1
  9
$AUPREC
 70
     2
  9
$MENU
  1
ACAD
  9
$ELEVATION
 40
0.000000
  9
$THICKNESS
 40
0.000000
  9
$VIEWDIR
 10
0.000000
 20
0.000000
 30
1.000000
  9
$LIMCHECK
 70
     1
  9
$BLIPMODE
 70
     1
  9
$CHAMFERA
 40
0.000000
  9
$CHAMFERB
 40
0.000000
  9
$FASTZOOM
 70
     1
  9
$SKPOLY
 70
     0
  9
$TDCREATE
 40
0.000000
  9
$TDUPDATE
 40
0.000000
  9
$TDINDWG
 40
0.000000
  9
$TDUSRTIMER
 40
0.000000
  9
$USRTIMER
 70
     1
  9
$ANGBASE
 50
0.000000
  9
$ANGDIR
 70
     0
  9
$PDMODE
 70
     0
  9
$PDSIZE
 40
0.000000
  9
$PLINEWID
 40
0.000000
  9
$COORDS
 70
     2
  9
$USERI1
 70
     0
  9
$USERI2
 70
     0
  9
$USERI3
 70
     0
  9
$USERI4
 70
     0
  9
$USERI5
 70
     0
  9
$USERR1
 40
0.000000
  9
$USERR2
 40
0.000000
  9
$USERR3
 40
0.000000
  9
$USERR4
 40
0.000000
  9
$USERR5
 40
0.000000
  0
ENDSEC
  0
SECTION
  2
TABLES
  0
TABLE
  2
LTYPE
 70
     5
  0
LTYPE
  2
CONTINUOUS
 70
    64
  3
Solid line
 72
    65
 73
     0
 40
0.0
  0
LTYPE
  2
HIDDEN
 70
    64
  3
------------------------
 72
    65
 73
     2
 40
12.6
 49
8.4
 49
-4.2
  0
LTYPE
  2
DOT
 70
    64
  3
････････････････････････
 72
    65
 73
     2
 40
8.0
 49
6.0
 49
-2.0
  0
LTYPE
  2
DASHDOT
 70
    64
  3
--･--･--･--･--･--･--･--
 72
    65
 73
     4
 40
50.5
 49
30.0
 49
-9.0
 49
2.5
 49
-9.0
  0
LTYPE
  2
DIVIDE
 70
    64
  3
--･･--･･--･･--･･--･･--
 72
    65
 73
     6
 40
58.0
 49
30.0
 49
-9.0
 49
2.5
 49
-5.0
 49
2.5
 49
-9.0
  0
LTYPE
  2
ACAD_ISO06W100
 70
    64
  3
____ ... ____ ... ____
 72
    65
 73
     8
 40
37.5
 49
24.0
 49
-3.0
 49
0.5
 49
-3.0
 49
0.5
 49
-3.0
 49
0.5
 49
-3.0
  0
LTYPE
  2
ACAD_ISO14W100
 70
    64
  3
__ . . . __ . . . __ . . . 
 72
    65
 73
     8
 40
25.5
 49
12.0
 49
-3.0
 49
0.5
 49
-3.0
 49
0.5
 49
-3.0
 49
0.5
 49
-3.0
  0
ENDTAB
  0
TABLE
  2
LAYER
 70
3
  0
LAYER
  2
1
 70
64
 62
7
  6
CONTINUOUS
  0
LAYER
  2
2
 70
64
 62
5
  6
CONTINUOUS
  0
LAYER
  2
11
 70
64
 62
7
  6
CONTINUOUS
  0
ENDTAB
  0
TABLE
  2
STYLE
 70
     2
  0
STYLE
  2
STANDARD
 70
    64
 40
0.0
 41
1.0
 50
0.0
 71
     0
 42
0.2
  3
TXT
  4

  0
STYLE
  2
KANJI
 70
    64
 40
0.0
 41
1.0
 50
0.0
 71
     0
 42
0.2
  3
TXT
  4
BIGFONT
  0
ENDTAB
  0
TABLE
  2
VIEW
 70
     0
  0
ENDTAB
  0
ENDSEC
  0
SECTION
  2
BLOCKS
  0
ENDSEC
  0
SECTION
  2
ENTITIES
  0
LINE
  8
2
 62
5
  6
DASHDOT
 10
104.545386
 20
330.961131
 11
104.545386
 21
232.202166
  0
LINE
  8
2
 62
5
  6
DASHDOT
 10
66.212070
 20
227.202169
 11
98.985389
 21
227.202169
  0
LINE
  8
2
 62
5
  6
DASHDOT
 10
104.545386
 20
224.982169
 11
104.545386
 21
154.539846
  0
LINE
  8
2
 62
5
  6
DASHDOT
 10
113.099664
 20
227.202169
 11
142.630203
 21
227.202169
  0
LINE
  8
2
 62
5
  6
DASHDOT
 10
100.655390
 20
227.202169
 11
111.543986
 21
227.202169
  0
LINE
  8
2
 62
5
  6
DASHDOT
 10
104.545386
 20
227.202169
 11
104.545386
 21
226.092169
  0
LINE
  8
2
 62
5
  6
DASHDOT
 10
104.545386
 20
229.432169
 11
104.545386
 21
227.762167
  0
LINE
  8
2
 62
5
  6
DASHDOT
 10
104.545386
 20
231.652165
 11
104.545386
 21
229.992165
  0
LINE
  8
2
 62
5
  6
DASHDOT
 10
104.545386
 20
146.204848
 11
104.545386
 21
105.253801
  0
LINE
  8
2
 62
5
  6
DASHDOT
 10
327.564598
 20
330.740459
 11
327.564598
 21
198.992182
  0
LINE
  8
2
 62
5
  6
DASHDOT
 10
303.471274
 20
227.212167
 11
351.431253
 21
227.212167
  0
LINE
  8
2
 62
5
  6
DASHDOT
 10
344.424271
 20
219.850509
 11
344.424271
 21
178.780524
  0
LINE
  8
2
 62
5
  6
DASHDOT
 10
310.424284
 20
219.480504
 11
310.424284
 21
178.947190
  0
LINE
  8
2
 62
5
  6
DASHDOT
 10
330.895859
 20
196.772183
 11
320.425677
 21
196.772183
  0
LINE
  8
2
 62
5
  6
DASHDOT
 10
372.517261
 20
196.772183
 11
332.984274
 21
196.772183
  0
LINE
  8
2
 62
5
  6
DASHDOT
 10
318.870000
 20
196.772183
 11
289.090962
 21
196.772183
  0
LINE
  8
2
 62
5
  6
DASHDOT
 10
327.564598
 20
191.762187
 11
327.564598
 21
105.253801
  0
LINE
  8
2
 62
5
  6
DASHDOT
 10
327.564598
 20
193.982186
 11
327.564598
 21
192.322186
  0
LINE
  8
2
 62
5
  6
DASHDOT
 10
327.564598
 20
196.212184
 11
327.564598
 21
194.542185
  0
LINE
  8
2
 62
5
  6
DASHDOT
 10
327.564598
 20
197.882182
 11
327.564598
 21
196.772183
  0
LINE
  8
1
 62
7
  6
CONTINUOUS
 10
321.545599
 20
126.957951
 11
322.289850
 21
125.668873
  0
LINE
  8
1
 62
7
  6
CONTINUOUS
 10
322.289850
 20
125.668873
 11
322.289850
 21
124.959403
  0
LINE
  8
1
 62
7
  6
CONTINUOUS
 10
333.583597
 20
126.957951
 11
332.839346
 21
125.668873
  0
LINE
  8
1
 62
7
  6
CONTINUOUS
 10
332.839346
 20
125.668873
 11
332.839346
 21
124.959403
  0
LINE
  8
1
 62
7
  6
CONTINUOUS
 10
362.424262
 20
187.452190
 11
370.584257
 21
187.197191
  0
LINE
  8
1
 62
7
  6
CONTINUOUS
 10
362.424262
 20
206.092175
 11
370.584257
 21
206.347175
  0
LINE
  8
1
 62
7
  6
CONTINUOUS
 10
308.803284
 20
201.772183
 11
308.803284
 21
207.712177
  0
LINE
  8
1
 62
7
  6
CONTINUOUS
 10
312.045284
 20
207.712177
 11
312.045284
 21
201.772183
  0
LINE
  8
1
 62
7
  6
CONTINUOUS
 10
312.434282
 20
201.098415
 11
312.045284
 21
201.772183
  0
LINE
  8
1
 62
7
  6
CONTINUOUS
 10
308.424286
 20
201.115738
 11
308.803284
 21
201.772183
  0
LINE
  8
1
 62
7
  6
CONTINUOUS
 10
346.045271
 20
201.772183
 11
346.045271
 21
207.712177
  0
LINE
  8
1
 62
7
  6
CONTINUOUS
 10
342.414273
 20
201.098415
 11
342.803272
 21
201.772183
  0
LINE
  8
1
 62
7
  6
CONTINUOUS
 10
342.803272
 20
207.712177
 11
342.803272
 21
201.772183
  0
CIRCLE
  8
1
 62
7
  6
CONTINUOUS
 10
327.564598
 20
227.212167
 40
10.499996
  0
LINE
  8
1
 62
7
  6
CONTINUOUS
 10
346.185592
 20
239.212165
 11
346.185592
 21
237.122165
  0
LINE
  8
1
 62
7
  6
CONTINUOUS
 10
342.943592
 20
239.212165
 11
342.943592
 21
237.122165
  0
LINE
  8
1
 62
7
  6
CONTINUOUS
 10
312.185604
 20
239.212165
 11
312.185604
 21
237.122165
  0
LINE
  8
1
 62
7
  6
CONTINUOUS
 10
308.943605
 20
239.212165
 11
308.943605
 21
237.122165
  0
LINE
  8
1
 62
7
  6
DASHDOT
 10
310.564604
 20
241.640497
 11
310.564604
 21
236.172166
  0
LINE
  8
1
 62
7
  6
DASHDOT
 10
344.564592
 20
241.307162
 11
344.564592
 21
236.023829
  0
LINE
  8
1
 62
7
  6
CONTINUOUS
 10
342.943592
 20
215.212173
 11
342.943592
 21
217.712172
  0
LINE
  8
1
 62
7
  6
CONTINUOUS
 10
346.185592
 20
215.212173
 11
346.185592
 21
217.712172
  0
LINE
  8
1
 62
7
  6
CONTINUOUS
 10
312.185604
 20
215.212173
 11
312.185604
 21
217.712172
  0
LINE
  8
1
 62
7
  6
CONTINUOUS
 10
308.943605
 20
215.212173
 11
308.943605
 21
217.712172
  0
LINE
  8
1
 62
7
  6
DASHDOT
 10
344.554591
 20
321.852127
 11
344.554591
 21
314.662131
  0
LINE
  8
1
 62
7
  6
CONTINUOUS
 10
330.564595
 20
307.042134
 11
330.564595
 21
312.522131
  0
LINE
  8
1
 62
7
  6
CONTINUOUS
 10
324.564596
 20
307.042134
 11
324.564596
 21
312.522131
  0
LINE
  8
1
 62
7
  6
DASHDOT
 10
310.574602
 20
321.852127
 11
310.574602
 21
314.662131
  0
LINE
  8
1
 62
7
  6
CONTINUOUS
 10
330.664595
 20
319.007132
 11
324.464598
 21
327.407127
  0
LINE
  8
1
 62
7
  6
CONTINUOUS
 10
330.664595
 20
327.407127
 11
324.464598
 21
319.007132
  0
LINE
  8
1
 62
7
  6
CONTINUOUS
 10
324.564596
 20
305.442134
 11
324.564596
 21
304.911135
  0
LINE
  8
1
 62
7
  6
CONTINUOUS
 10
324.564596
 20
299.526139
 11
324.564596
 21
294.095138
  0
LINE
  8
1
 62
7
  6
CONTINUOUS
 10
330.564595
 20
301.498138
 11
330.564595
 21
296.069137
  0
LINE
  8
1
 62
7
  6
CONTINUOUS
 10
324.564596
 20
288.596143
 11
324.564596
 21
286.022140
  0
LINE
  8
1
 62
7
  6
CONTINUOUS
 10
330.564595
 20
290.568142
 11
330.564595
 21
286.022140
  0
LINE
  8
1
 62
7
  6
CONTINUOUS
 10
98.498607
 20
126.919902
 11
99.246292
 21
125.624873
  0
LINE
  8
1
 62
7
  6
CONTINUOUS
 10
99.246292
 20
125.624873
 11
99.246292
 21
124.912128
  0
LINE
  8
1
 62
7
  6
CONTINUOUS
 10
109.844479
 20
125.624873
 11
109.844479
 21
117.210973
  0
LINE
  8
1
 62
7
  6
CONTINUOUS
 10
110.592165
 20
126.919902
 11
109.844479
 21
125.624873
  0
LINE
  8
1
 62
7
  6
CONTINUOUS
 10
85.545394
 20
200.545739
 11
85.924392
 21
201.202184
  0
LINE
  8
1
 62
7
  6
CONTINUOUS
 10
85.924392
 20
216.272170
 11
85.924392
 21
217.702174
  0
LINE
  8
1
 62
7
  6
CONTINUOUS
 10
89.166392
 20
216.272170
 11
89.166392
 21
217.702174
  0
LINE
  8
1
 62
7
  6
CONTINUOUS
 10
119.924380
 20
216.272170
 11
119.924380
 21
217.702174
  0
LINE
  8
1
 62
7
  6
CONTINUOUS
 10
123.166379
 20
216.272170
 11
123.166379
 21
217.702174
  0
LINE
  8
1
 62
7
  6
CONTINUOUS
 10
89.555391
 20
200.538414
 11
89.166392
 21
201.212182
  0
LINE
  8
1
 62
7
  6
CONTINUOUS
 10
85.545394
 20
200.555737
 11
85.924392
 21
201.212182
  0
LINE
  8
1
 62
7
  6
DASHDOT
 10
87.545392
 20
219.290507
 11
87.545392
 21
178.220523
  0
CIRCLE
  8
1
 62
7
  6
CONTINUOUS
 10
104.545386
 20
196.212181
 40
10.499996
  0
LINE
  8
1
 62
7
  6
CONTINUOUS
 10
85.924392
 20
201.212182
 11
85.924392
 21
208.212180
  0
LINE
  8
1
 62
7
  6
CONTINUOUS
 10
89.166392
 20
208.212180
 11
89.166392
 21
201.212182
  0
LINE
  8
1
 62
7
  6
DASHDOT
 10
127.520376
 20
196.212181
 11
81.692060
 21
196.212181
  0
LINE
  8
1
 62
7
  6
CONTINUOUS
 10
119.535381
 20
200.538414
 11
119.924380
 21
201.212182
  0
LINE
  8
1
 62
7
  6
CONTINUOUS
 10
123.545378
 20
200.555737
 11
123.166379
 21
201.212182
  0
LINE
  8
1
 62
7
  6
DASHDOT
 10
121.545380
 20
218.920503
 11
121.545380
 21
178.387189
  0
LINE
  8
1
 62
7
  6
CONTINUOUS
 10
119.924380
 20
208.212180
 11
119.924380
 21
201.212182
  0
LINE
  8
1
 62
7
  6
CONTINUOUS
 10
123.166379
 20
201.212182
 11
123.166379
 21
208.212180
  0
LINE
  8
1
 62
7
  6
DASHDOT
 10
87.545392
 20
241.630499
 11
87.545392
 21
236.162168
  0
LINE
  8
1
 62
7
  6
DASHDOT
 10
121.545380
 20
241.297164
 11
121.545380
 21
236.013832
  0
LINE
  8
1
 62
7
  6
CONTINUOUS
 10
85.924392
 20
238.212164
 11
85.924392
 21
237.112167
  0
LINE
  8
1
 62
7
  6
CONTINUOUS
 10
89.166392
 20
238.212164
 11
89.166392
 21
237.112167
  0
LINE
  8
1
 62
7
  6
CONTINUOUS
 10
119.924380
 20
238.212164
 11
119.924380
 21
237.112167
  0
LINE
  8
1
 62
7
  6
CONTINUOUS
 10
123.166379
 20
238.212164
 11
123.166379
 21
237.112167
  0
LINE
  8
1
 62
7
  6
CONTINUOUS
 10
107.645383
 20
319.162128
 11
101.445386
 21
327.407127
  0
LINE
  8
1
 62
7
  6
CONTINUOUS
 10
107.645383
 20
327.407127
 11
101.445386
 21
319.162128
  0
LINE
  8
1
 62
7
  6
CONTINUOUS
 10
157.015532
 20
227.202169
 11
169.545356
 21
227.202169
  0
LINE
  8
1
 62
7
  6
CONTINUOUS
 10
119.535381
 20
195.172385
 11
119.535381
 21
184.212188
  0
LINE
  8
1
 62
7
  6
CONTINUOUS
 10
119.535381
 20
208.212180
 11
119.535381
 21
197.251977
  0
LINE
  8
1
 62
7
  6
CONTINUOUS
 10
89.555391
 20
195.172385
 11
89.555391
 21
184.212188
  0
LINE
  8
1
 62
7
  6
CONTINUOUS
 10
89.555391
 20
208.212180
 11
89.555391
 21
197.251977
  0
ARC
  8
1
 62
7
  6
CONTINUOUS
 10
110.200530
 20
128.503578
 40
6.698647
 50
73.655786
 51
106.344214
  0
ARC
  8
1
 62
7
  6
CONTINUOUS
 10
98.890237
 20
128.532583
 40
6.670818
 50
73.585637
 51
106.414283
  0
ARC
  8
1
 62
7
  6
CONTINUOUS
 10
104.545386
 20
108.811666
 40
26.390538
 50
81.786747
 51
98.213253
  0
LINE
  8
1
 62
7
  6
CONTINUOUS
 10
108.315482
 20
134.931522
 11
108.315482
 21
128.672208
  0
ARC
  8
1
 62
7
  6
CONTINUOUS
 10
110.200530
 20
131.426875
 40
3.337903
 50
-124.384254
 51
-55.615746
  0
LINE
  8
1
 62
7
  6
CONTINUOUS
 10
112.085577
 20
134.931522
 11
112.085577
 21
128.672208
  0
LINE
  8
1
 62
7
  6
CONTINUOUS
 10
110.997245
 20
127.583875
 11
112.085577
 21
128.672208
  0
LINE
  8
1
 62
7
  6
CONTINUOUS
 10
109.551718
 20
114.904794
 11
107.538300
 21
112.891380
  0
LINE
  8
1
 62
7
  6
CONTINUOUS
 10
109.551718
 20
116.918212
 11
109.551718
 21
114.904794
  0
LINE
  8
1
 62
7
  6
CONTINUOUS
 10
110.592165
 20
127.583875
 11
110.592165
 21
117.958659
  0
LINE
  8
1
 62
7
  6
CONTINUOUS
 10
110.592165
 20
117.958659
 11
109.551718
 21
116.918212
  0
LINE
  8
1
 62
7
  6
CONTINUOUS
 10
104.545386
 20
117.958659
 11
110.592165
 21
117.958659
  0
LINE
  8
1
 62
7
  6
CONTINUOUS
 10
109.551718
 20
114.904794
 11
104.545386
 21
114.904794
  0
LINE
  8
1
 62
7
  6
CONTINUOUS
 10
109.551718
 20
116.918212
 11
104.545386
 21
116.918212
  0
LINE
  8
1
 62
7
  6
CONTINUOUS
 10
107.538300
 20
112.891380
 11
104.545386
 21
112.891380
  0
LINE
  8
1
 62
7
  6
CONTINUOUS
 10
93.863448
 20
123.208936
 11
93.863448
 21
114.643659
  0
LINE
  8
1
 62
7
  6
CONTINUOUS
 10
93.863448
 20
114.643659
 11
95.566640
 21
112.940467
  0
LINE
  8
1
 62
7
  6
CONTINUOUS
 10
95.566640
 20
124.912128
 11
93.863448
 21
123.208936
  0
LINE
  8
1
 62
7
  6
CONTINUOUS
 10
97.005194
 20
134.931522
 11
97.005194
 21
128.672208
  0
LINE
  8
1
 62
7
  6
CONTINUOUS
 10
98.015389
 20
108.587133
 11
104.545386
 21
108.587133
  0
LINE
  8
1
 62
7
  6
CONTINUOUS
 10
104.545386
 20
112.940467
 11
95.566640
 21
112.940467
  0
ARC
  8
1
 62
7
  6
CONTINUOUS
 10
104.566323
 20
123.816494
 40
10.603944
 50
-120.301848
 51
-90.113133
  0
ARC
  8
1
 62
7
  6
CONTINUOUS
 10
104.566323
 20
114.036098
 40
10.603944
 50
90.113133
 51
120.301848
  0
LINE
  8
1
 62
7
  6
CONTINUOUS
 10
104.545386
 20
124.912128
 11
95.566640
 21
124.912128
  0
ARC
  8
1
 62
7
  6
CONTINUOUS
 10
104.545386
 20
139.668322
 40
11.624463
 50
-108.924640
 51
-71.075360
  0
LINE
  8
1
 62
7
  6
CONTINUOUS
 10
99.216046
 20
123.191326
 11
99.216046
 21
114.661269
  0
ARC
  8
1
 62
7
  6
CONTINUOUS
 10
96.533933
 20
121.432895
 40
3.207150
 50
33.249417
 51
146.373593
  0
ARC
  8
1
 62
7
  6
CONTINUOUS
 10
96.533933
 20
116.419700
 40
3.207150
 50
-146.373593
 51
-33.249417
  0
LINE
  8
1
 62
7
  6
CONTINUOUS
 10
98.498607
 20
127.583875
 11
98.498607
 21
124.912128
  0
LINE
  8
1
 62
7
  6
CONTINUOUS
 10
98.015389
 20
108.587133
 11
95.566640
 21
112.940467
  0
LINE
  8
1
 62
7
  6
CONTINUOUS
 10
98.498607
 20
125.624876
 11
110.592165
 21
125.624876
  0
LINE
  8
1
 62
7
  6
CONTINUOUS
 10
100.775290
 20
134.931522
 11
100.775290
 21
128.672208
  0
ARC
  8
1
 62
7
  6
CONTINUOUS
 10
98.890242
 20
131.426875
 40
3.337903
 50
-124.384254
 51
-55.615746
  0
LINE
  8
1
 62
7
  6
CONTINUOUS
 10
98.093526
 20
127.583875
 11
110.997245
 21
127.583875
  0
LINE
  8
1
 62
7
  6
CONTINUOUS
 10
97.005194
 20
128.672208
 11
98.093526
 21
127.583875
  0
LINE
  8
1
 62
7
  6
CONTINUOUS
 10
127.645376
 20
212.202176
 11
127.645376
 21
209.212179
  0
LINE
  8
1
 62
7
  6
CONTINUOUS
 10
127.645376
 20
212.202176
 11
81.445395
 21
212.202176
  0
LINE
  8
1
 62
7
  6
CONTINUOUS
 10
81.445395
 20
212.202176
 11
81.445395
 21
209.212179
  0
LINE
  8
1
 62
7
  6
CONTINUOUS
 10
127.645376
 20
181.212183
 11
81.445395
 21
181.212183
  0
LINE
  8
1
 62
7
  6
CONTINUOUS
 10
123.545380
 20
208.212180
 11
123.545380
 21
184.212188
  0
LINE
  8
1
 62
7
  6
CONTINUOUS
 10
127.645376
 20
181.212183
 11
127.645376
 21
183.212189
  0
LINE
  8
1
 62
7
  6
CONTINUOUS
 10
117.545378
 20
208.212180
 11
117.545378
 21
200.842183
  0
LINE
  8
1
 62
7
  6
CONTINUOUS
 10
120.135382
 20
196.212181
 11
112.345383
 21
209.712177
  0
LINE
  8
1
 62
7
  6
CONTINUOUS
 10
126.645377
 20
208.212180
 11
114.832046
 21
208.212180
  0
ARC
  8
1
 62
7
  6
CONTINUOUS
 10
125.545378
 20
206.212182
 40
1.999998
 50
90.011670
 51
-179.976661
  0
ARC
  8
1
 62
7
  6
CONTINUOUS
 10
126.645377
 20
209.212179
 40
0.999999
 50
-90.022287
 51
-0.010617
  0
LINE
  8
1
 62
7
  6
CONTINUOUS
 10
123.565376
 20
201.212184
 11
124.045378
 21
201.212184
  0
LINE
  8
1
 62
7
  6
CONTINUOUS
 10
124.045378
 20
191.212184
 11
123.545380
 21
191.212184
  0
LINE
  8
1
 62
7
  6
CONTINUOUS
 10
124.045378
 20
201.212184
 11
124.045378
 21
191.212184
  0
ARC
  8
1
 62
7
  6
CONTINUOUS
 10
125.545378
 20
186.212186
 40
1.999998
 50
-179.976661
 51
-90.022287
  0
ARC
  8
1
 62
7
  6
CONTINUOUS
 10
126.645377
 20
183.212189
 40
0.999999
 50
0.000000
 51
90.011670
  0
LINE
  8
1
 62
7
  6
CONTINUOUS
 10
117.545378
 20
184.212188
 11
117.545378
 21
191.662184
  0
LINE
  8
1
 62
7
  6
CONTINUOUS
 10
126.645377
 20
184.212188
 11
114.950381
 21
184.212188
  0
LINE
  8
1
 62
7
  6
CONTINUOUS
 10
112.345383
 20
182.712188
 11
120.135382
 21
196.212181
  0
LINE
  8
1
 62
7
  6
CONTINUOUS
 10
119.535381
 20
201.212179
 11
123.545378
 21
201.212179
  0
LINE
  8
1
 62
7
  6
CONTINUOUS
 10
85.545391
 20
208.212180
 11
85.545391
 21
184.212188
  0
LINE
  8
1
 62
7
  6
CONTINUOUS
 10
81.445395
 20
181.212183
 11
81.445395
 21
183.212189
  0
LINE
  8
1
 62
7
  6
CONTINUOUS
 10
88.955390
 20
196.212181
 11
96.745389
 21
209.712177
  0
LINE
  8
1
 62
7
  6
CONTINUOUS
 10
112.345383
 20
209.712177
 11
96.745389
 21
209.712177
  0
CIRCLE
  8
1
 62
7
  6
CONTINUOUS
 10
104.545386
 20
196.212181
 40
9.319995
  0
LINE
  8
1
 62
7
  6
CONTINUOUS
 10
112.345383
 20
182.712188
 11
96.745389
 21
182.712188
  0
LINE
  8
1
 62
7
  6
CONTINUOUS
 10
91.545388
 20
184.212190
 11
91.545388
 21
191.662184
  0
LINE
  8
1
 62
7
  6
CONTINUOUS
 10
96.745389
 20
182.712188
 11
88.955390
 21
196.212181
  0
CIRCLE
  8
1
 62
7
  6
CONTINUOUS
 10
104.545386
 20
196.212181
 40
13.419994
  0
LINE
  8
1
 62
7
  6
CONTINUOUS
 10
85.525393
 20
201.212184
 11
85.045391
 21
201.212184
  0
LINE
  8
1
 62
7
  6
CONTINUOUS
 10
85.045391
 20
191.212184
 11
85.545391
 21
191.212184
  0
LINE
  8
1
 62
7
  6
CONTINUOUS
 10
85.045391
 20
201.212184
 11
85.045391
 21
191.212184
  0
LINE
  8
1
 62
7
  6
CONTINUOUS
 10
82.445392
 20
184.212188
 11
94.243721
 21
184.212188
  0
ARC
  8
1
 62
7
  6
CONTINUOUS
 10
83.545391
 20
186.212186
 40
1.999998
 50
-89.977713
 51
-0.023339
  0
ARC
  8
1
 62
7
  6
CONTINUOUS
 10
82.445392
 20
183.212189
 40
0.999999
 50
89.988330
 51
180.000000
  0
LINE
  8
1
 62
7
  6
CONTINUOUS
 10
91.545388
 20
208.212180
 11
91.545388
 21
200.842183
  0
LINE
  8
1
 62
7
  6
CONTINUOUS
 10
82.445392
 20
208.212180
 11
94.003721
 21
208.212180
  0
ARC
  8
1
 62
7
  6
CONTINUOUS
 10
83.545391
 20
206.212182
 40
1.999998
 50
-0.023339
 51
89.988330
  0
ARC
  8
1
 62
7
  6
CONTINUOUS
 10
82.445392
 20
209.212179
 40
0.999999
 50
-179.989383
 51
-89.977713
  0
LINE
  8
1
 62
7
  6
CONTINUOUS
 10
89.555391
 20
201.212179
 11
85.545394
 21
201.212179
  0
LINE
  8
1
 62
7
  6
CONTINUOUS
 10
118.582826
 20
319.152130
 11
115.045385
 21
319.152130
  0
ARC
  8
1
 62
7
  6
CONTINUOUS
 10
119.425380
 20
318.162129
 40
1.300000
 50
112.531807
 51
-175.793551
  0
ARC
  8
1
 62
7
  6
CONTINUOUS
 10
121.545380
 20
310.752135
 40
8.999996
 50
74.083443
 51
106.912213
  0
LINE
  8
1
 62
7
  6
CONTINUOUS
 10
118.128883
 20
318.066773
 11
118.052975
 21
317.122133
  0
LINE
  8
1
 62
7
  6
CONTINUOUS
 10
87.545392
 20
319.752129
 11
89.145389
 21
318.152131
  0
LINE
  8
1
 62
7
  6
CONTINUOUS
 10
90.507945
 20
319.152130
 11
94.045387
 21
319.152130
  0
LINE
  8
1
 62
7
  6
CONTINUOUS
 10
90.961889
 20
318.066773
 11
91.037796
 21
317.122133
  0
ARC
  8
1
 62
7
  6
CONTINUOUS
 10
89.665391
 20
318.162129
 40
1.300000
 50
-4.206449
 51
74.369922
  0
LINE
  8
1
 62
7
  6
CONTINUOUS
 10
122.545379
 20
272.202148
 11
86.545393
 21
272.202148
  0
LINE
  8
1
 62
7
  6
CONTINUOUS
 10
122.545379
 20
302.202137
 11
122.545379
 21
272.202148
  0
LINE
  8
1
 62
7
  6
CONTINUOUS
 10
86.545393
 20
302.202137
 11
86.545393
 21
272.202148
  0
LINE
  8
1
 62
7
  6
CONTINUOUS
 10
86.545393
 20
302.202137
 11
122.545379
 21
302.202137
  0
LINE
  8
1
 62
7
  6
CONTINUOUS
 10
91.045393
 20
135.202204
 11
118.045379
 21
135.202204
  0
ARC
  8
1
 62
7
  6
CONTINUOUS
 10
118.045379
 20
140.202202
 40
4.999998
 50
-90.022287
 51
-0.010617
  0
ARC
  8
1
 62
7
  6
CONTINUOUS
 10
91.045393
 20
140.202202
 40
4.999998
 50
-179.976661
 51
-90.022287
  0
LINE
  8
1
 62
7
  6
CONTINUOUS
 10
123.945378
 20
169.802193
 11
123.945378
 21
168.532192
  0
LINE
  8
1
 62
7
  6
CONTINUOUS
 10
85.145393
 20
169.802193
 11
85.145393
 21
168.532192
  0
LINE
  8
1
 62
7
  6
CONTINUOUS
 10
81.445395
 20
169.802193
 11
127.645376
 21
169.802193
  0
LINE
  8
1
 62
7
  6
CONTINUOUS
 10
127.645376
 20
169.802193
 11
127.645376
 21
177.732191
  0
LINE
  8
1
 62
7
  6
CONTINUOUS
 10
81.445395
 20
169.802193
 11
81.445395
 21
177.732191
  0
LINE
  8
1
 62
7
  6
CONTINUOUS
 10
125.545376
 20
317.122133
 11
125.545376
 21
253.552157
  0
LINE
  8
1
 62
7
  6
CONTINUOUS
 10
125.545376
 20
317.122133
 11
83.545396
 21
317.122133
  0
LINE
  8
1
 62
7
  6
CONTINUOUS
 10
83.545396
 20
253.552157
 11
83.545396
 21
317.122133
  0
ARC
  8
1
 62
7
  6
CONTINUOUS
 10
127.045375
 20
242.209518
 40
1.500000
 50
180.000000
 51
-89.988330
  0
LINE
  8
1
 62
7
  6
CONTINUOUS
 10
139.545370
 20
240.709516
 11
127.045375
 21
240.709516
  0
LINE
  8
1
 62
7
  6
CONTINUOUS
 10
138.545371
 20
227.209525
 11
129.545374
 21
227.209525
  0
ARC
  8
1
 62
7
  6
CONTINUOUS
 10
116.605380
 20
233.909520
 40
22.939990
 50
-16.993507
 51
16.982890
  0
ARC
  8
1
 62
7
  6
CONTINUOUS
 10
151.485363
 20
233.909520
 40
22.939990
 50
163.029832
 51
-162.993771
  0
ARC
  8
1
 62
7
  6
CONTINUOUS
 10
116.435381
 20
220.489523
 40
23.109991
 50
-16.936212
 51
16.925594
  0
LINE
  8
1
 62
7
  6
CONTINUOUS
 10
139.545370
 20
213.709526
 11
139.545370
 21
240.709516
  0
ARC
  8
1
 62
7
  6
CONTINUOUS
 10
151.585365
 20
220.499527
 40
23.049988
 50
163.087128
 51
-163.051067
  0
ARC
  8
1
 62
7
  6
CONTINUOUS
 10
127.045375
 20
212.209527
 40
1.500000
 50
89.977713
 51
179.989383
  0
LINE
  8
1
 62
7
  6
CONTINUOUS
 10
139.545370
 20
213.709526
 11
127.045375
 21
213.709526
  0
LINE
  8
1
 62
7
  6
CONTINUOUS
 10
125.545378
 20
216.209525
 11
125.545378
 21
212.209527
  0
LINE
  8
1
 62
7
  6
CONTINUOUS
 10
119.535381
 20
216.209525
 11
125.545378
 21
216.209525
  0
LINE
  8
1
 62
7
  6
CONTINUOUS
 10
119.535381
 20
238.149519
 11
125.545378
 21
238.149519
  0
LINE
  8
1
 62
7
  6
CONTINUOUS
 10
125.545378
 20
238.149519
 11
125.545378
 21
242.209518
  0
LINE
  8
1
 62
7
  6
CONTINUOUS
 10
89.545393
 20
239.149518
 11
119.535381
 21
239.149518
  0
LINE
  8
1
 62
7
  6
CONTINUOUS
 10
89.545393
 20
215.209526
 11
119.535381
 21
215.209526
  0
LINE
  8
1
 62
7
  6
CONTINUOUS
 10
83.545396
 20
216.209525
 11
89.545393
 21
216.209525
  0
LINE
  8
1
 62
7
  6
CONTINUOUS
 10
83.545396
 20
212.209527
 11
83.545396
 21
216.209525
  0
ARC
  8
1
 62
7
  6
CONTINUOUS
 10
82.045396
 20
212.209527
 40
1.500000
 50
0.023339
 51
89.977713
  0
LINE
  8
1
 62
7
  6
CONTINUOUS
 10
69.545402
 20
213.709526
 11
82.045396
 21
213.709526
  0
LINE
  8
1
 62
7
  6
CONTINUOUS
 10
70.545398
 20
227.209525
 11
79.545397
 21
227.209525
  0
ARC
  8
1
 62
7
  6
CONTINUOUS
 10
92.795390
 20
233.949517
 40
23.249991
 50
163.144424
 51
-163.165658
  0
ARC
  8
1
 62
7
  6
CONTINUOUS
 10
57.495406
 20
233.919521
 40
23.049988
 50
-16.936212
 51
16.925594
  0
ARC
  8
1
 62
7
  6
CONTINUOUS
 10
82.045396
 20
242.209518
 40
1.500000
 50
-89.988330
 51
0.023339
  0
LINE
  8
1
 62
7
  6
CONTINUOUS
 10
69.545402
 20
240.709516
 11
82.045396
 21
240.709516
  0
LINE
  8
1
 62
7
  6
CONTINUOUS
 10
83.545396
 20
242.209518
 11
83.545396
 21
238.149519
  0
LINE
  8
1
 62
7
  6
CONTINUOUS
 10
83.545396
 20
238.149519
 11
89.545393
 21
238.149519
  0
ARC
  8
1
 62
7
  6
CONTINUOUS
 10
92.895390
 20
220.449524
 40
23.349988
 50
163.144424
 51
-163.165658
  0
ARC
  8
1
 62
7
  6
CONTINUOUS
 10
57.335402
 20
220.469528
 40
23.209989
 50
-16.878916
 51
16.868298
  0
LINE
  8
1
 62
7
  6
CONTINUOUS
 10
69.545402
 20
213.709526
 11
69.545402
 21
240.709516
  0
LINE
  8
1
 62
7
  6
CONTINUOUS
 10
107.645383
 20
327.407127
 11
107.645383
 21
319.162128
  0
LINE
  8
1
 62
7
  6
CONTINUOUS
 10
101.445386
 20
319.162128
 11
101.445386
 21
327.407127
  0
LINE
  8
1
 62
7
  6
CONTINUOUS
 10
101.445386
 20
327.407127
 11
107.645383
 21
327.407127
  0
LINE
  8
1
 62
7
  6
CONTINUOUS
 10
109.195383
 20
319.162128
 11
109.195383
 21
317.152130
  0
LINE
  8
1
 62
7
  6
CONTINUOUS
 10
99.895386
 20
319.162128
 11
109.195383
 21
319.162128
  0
LINE
  8
1
 62
7
  6
CONTINUOUS
 10
99.895386
 20
317.152130
 11
99.895386
 21
319.162128
  0
LINE
  8
1
 62
7
  6
CONTINUOUS
 10
123.545378
 20
217.702174
 11
123.545378
 21
216.272170
  0
LINE
  8
1
 62
7
  6
CONTINUOUS
 10
85.545394
 20
217.702174
 11
85.545394
 21
216.272170
  0
LINE
  8
1
 62
7
  6
CONTINUOUS
 10
123.545378
 20
237.112167
 11
123.545378
 21
238.212164
  0
LINE
  8
1
 62
7
  6
CONTINUOUS
 10
85.545394
 20
237.112167
 11
85.545394
 21
238.212164
  0
ARC
  8
1
 62
7
  6
CONTINUOUS
 10
99.545388
 20
225.542171
 40
0.559999
 50
90.011670
 51
-90.022287
  0
LINE
  8
1
 62
7
  6
CONTINUOUS
 10
107.605386
 20
230.092168
 11
107.605386
 21
231.932167
  0
LINE
  8
1
 62
7
  6
CONTINUOUS
 10
107.605386
 20
227.492166
 11
107.605386
 21
229.312170
  0
ARC
  8
1
 62
7
  6
CONTINUOUS
 10
107.325387
 20
227.492166
 40
0.280002
 50
-179.976661
 51
-0.010617
  0
LINE
  8
1
 62
7
  6
CONTINUOUS
 10
107.045385
 20
231.932167
 11
107.045385
 21
227.492166
  0
ARC
  8
1
 62
7
  6
CONTINUOUS
 10
107.325387
 20
231.932167
 40
0.280002
 50
0.000000
 51
-179.976661
  0
ARC
  8
1
 62
7
  6
CONTINUOUS
 10
105.795385
 20
231.092167
 40
0.280002
 50
-136.489164
 51
22.907694
  0
LINE
  8
1
 62
7
  6
CONTINUOUS
 10
105.445387
 20
231.162165
 11
105.595387
 21
230.902169
  0
ARC
  8
1
 62
7
  6
CONTINUOUS
 10
104.685388
 20
230.822165
 40
0.830000
 50
24.751777
 51
90.011670
  0
LINE
  8
1
 62
7
  6
CONTINUOUS
 10
104.405386
 20
231.652165
 11
104.685388
 21
231.652165
  0
ARC
  8
1
 62
7
  6
CONTINUOUS
 10
104.405386
 20
230.822165
 40
0.830000
 50
90.011670
 51
-90.022287
  0
LINE
  8
1
 62
7
  6
CONTINUOUS
 10
104.685388
 20
229.992165
 11
104.405386
 21
229.992165
  0
ARC
  8
1
 62
7
  6
CONTINUOUS
 10
104.685388
 20
228.592168
 40
1.389999
 50
-90.022287
 51
90.001052
  0
LINE
  8
1
 62
7
  6
CONTINUOUS
 10
104.405386
 20
227.202169
 11
104.685388
 21
227.202169
  0
ARC
  8
1
 62
7
  6
CONTINUOUS
 10
104.405386
 20
228.592168
 40
1.389999
 50
-153.448715
 51
-90.022287
  0
LINE
  8
1
 62
7
  6
CONTINUOUS
 10
103.065387
 20
228.162168
 11
103.175388
 21
227.962168
  0
ARC
  8
1
 62
7
  6
CONTINUOUS
 10
103.295386
 20
228.322166
 40
0.280002
 50
22.918312
 51
-146.916996
  0
LINE
  8
1
 62
7
  6
CONTINUOUS
 10
103.645387
 20
228.252170
 11
103.555387
 21
228.432167
  0
ARC
  8
1
 62
7
  6
CONTINUOUS
 10
104.405386
 20
228.592168
 40
0.830000
 50
-155.912433
 51
-90.022287
  0
LINE
  8
1
 62
7
  6
CONTINUOUS
 10
104.685388
 20
227.762167
 11
104.405386
 21
227.762167
  0
ARC
  8
1
 62
7
  6
CONTINUOUS
 10
104.685388
 20
228.592168
 40
0.830000
 50
-90.022287
 51
90.001052
  0
LINE
  8
1
 62
7
  6
CONTINUOUS
 10
104.405386
 20
229.432169
 11
104.685388
 21
229.432169
  0
ARC
  8
1
 62
7
  6
CONTINUOUS
 10
104.405386
 20
230.822165
 40
1.389999
 50
90.011670
 51
-90.022287
  0
LINE
  8
1
 62
7
  6
CONTINUOUS
 10
104.685388
 20
232.202166
 11
104.405386
 21
232.202166
  0
ARC
  8
1
 62
7
  6
CONTINUOUS
 10
104.685388
 20
230.822165
 40
1.389999
 50
27.845749
 51
90.011670
  0
LINE
  8
1
 62
7
  6
CONTINUOUS
 10
106.055386
 20
231.192167
 11
105.915384
 21
231.472166
  0
LINE
  8
1
 62
7
  6
CONTINUOUS
 10
99.545388
 20
227.762167
 11
100.655390
 21
227.762167
  0
LINE
  8
1
 62
7
  6
CONTINUOUS
 10
99.545388
 20
229.432169
 11
99.545388
 21
227.762167
  0
LINE
  8
1
 62
7
  6
CONTINUOUS
 10
100.655390
 20
229.432169
 11
99.545388
 21
229.432169
  0
ARC
  8
1
 62
7
  6
CONTINUOUS
 10
100.655390
 20
228.592168
 40
0.830000
 50
-90.022287
 51
90.001052
  0
LINE
  8
1
 62
7
  6
CONTINUOUS
 10
99.545388
 20
229.992165
 11
100.655390
 21
229.992165
  0
LINE
  8
1
 62
7
  6
CONTINUOUS
 10
99.545388
 20
231.652165
 11
99.545388
 21
229.992165
  0
LINE
  8
1
 62
7
  6
CONTINUOUS
 10
100.655390
 20
231.652165
 11
99.545388
 21
231.652165
  0
ARC
  8
1
 62
7
  6
CONTINUOUS
 10
100.655390
 20
230.822165
 40
0.830000
 50
-90.022287
 51
90.001052
  0
ARC
  8
1
 62
7
  6
CONTINUOUS
 10
100.655390
 20
230.822165
 40
1.389999
 50
-53.467580
 51
90.001052
  0
ARC
  8
1
 62
7
  6
CONTINUOUS
 10
100.655390
 20
228.592168
 40
1.389999
 50
-91.225498
 51
53.217162
  0
LINE
  8
1
 62
7
  6
CONTINUOUS
 10
98.985389
 20
227.202169
 11
100.625391
 21
227.202169
  0
LINE
  8
1
 62
7
  6
CONTINUOUS
 10
98.985389
 20
232.202166
 11
98.985389
 21
227.202169
  0
LINE
  8
1
 62
7
  6
CONTINUOUS
 10
100.655390
 20
232.202166
 11
98.985389
 21
232.202166
  0
LINE
  8
1
 62
7
  6
CONTINUOUS
 10
109.625383
 20
232.132168
 11
107.605386
 21
230.092168
  0
LINE
  8
1
 62
7
  6
CONTINUOUS
 10
107.605386
 20
229.312170
 11
109.625383
 21
227.292168
  0
ARC
  8
1
 62
7
  6
CONTINUOUS
 10
113.985385
 20
225.542171
 40
0.559999
 50
-45.732649
 51
45.711415
  0
LINE
  8
1
 62
7
  6
CONTINUOUS
 10
112.145385
 20
222.932171
 11
114.375382
 21
225.152170
  0
LINE
  8
1
 62
7
  6
CONTINUOUS
 10
112.645383
 20
224.982169
 11
99.545388
 21
224.982169
  0
LINE
  8
1
 62
7
  6
CONTINUOUS
 10
111.365382
 20
223.712171
 11
112.645383
 21
224.982169
  0
ARC
  8
1
 62
7
  6
CONTINUOUS
 10
111.755382
 20
223.322169
 40
0.549998
 50
134.988857
 51
-44.987804
  0
LINE
  8
1
 62
7
  6
CONTINUOUS
 10
112.145385
 20
228.152170
 11
114.375382
 21
225.932168
  0
ARC
  8
1
 62
7
  6
CONTINUOUS
 10
111.755382
 20
227.762167
 40
0.549998
 50
44.977187
 51
-135.744319
  0
LINE
  8
1
 62
7
  6
CONTINUOUS
 10
112.645383
 20
226.092169
 11
111.365382
 21
227.382168
  0
LINE
  8
1
 62
7
  6
CONTINUOUS
 10
99.545388
 20
226.092169
 11
112.645383
 21
226.092169
  0
ARC
  8
1
 62
7
  6
CONTINUOUS
 10
109.825386
 20
231.932167
 40
0.280002
 50
-46.477495
 51
134.978239
  0
LINE
  8
1
 62
7
  6
CONTINUOUS
 10
107.985386
 20
229.702167
 11
110.015388
 21
231.732165
  0
LINE
  8
1
 62
7
  6
CONTINUOUS
 10
110.025386
 20
227.682166
 11
107.985386
 21
229.702167
  0
ARC
  8
1
 62
7
  6
CONTINUOUS
 10
109.825386
 20
227.492166
 40
0.280002
 50
-133.624375
 51
43.534175
  0
LINE
  8
1
 62
7
  6
CONTINUOUS
 10
82.545394
 20
212.202176
 11
126.545375
 21
212.202176
  0
LINE
  8
1
 62
7
  6
CONTINUOUS
 10
82.545392
 20
242.272163
 11
126.545377
 21
242.272163
  0
LINE
  8
1
 62
7
  6
CONTINUOUS
 10
126.545377
 20
243.572165
 11
126.545377
 21
242.272163
  0
LINE
  8
1
 62
7
  6
CONTINUOUS
 10
82.545392
 20
243.572165
 11
82.545392
 21
242.272163
  0
LINE
  8
1
 62
7
  6
CONTINUOUS
 10
86.045392
 20
166.861865
 11
123.045377
 21
166.861865
  0
ARC
  8
1
 62
7
  6
CONTINUOUS
 10
87.145391
 20
168.532192
 40
2.000001
 50
180.000000
 51
-123.367032
  0
ARC
  8
1
 62
7
  6
CONTINUOUS
 10
121.945380
 20
168.532192
 40
2.000001
 50
-56.632968
 51
0.000000
  0
LINE
  8
1
 62
7
  6
CONTINUOUS
 10
123.045377
 20
166.861865
 11
123.045377
 21
140.232203
  0
LINE
  8
1
 62
7
  6
CONTINUOUS
 10
86.045395
 20
166.861865
 11
86.045395
 21
140.232203
  0
LINE
  8
1
 62
7
  6
CONTINUOUS
 10
82.545394
 20
179.852188
 11
126.545377
 21
179.852188
  0
LINE
  8
1
 62
7
  6
CONTINUOUS
 10
82.545394
 20
179.852188
 11
82.545394
 21
181.202185
  0
LINE
  8
1
 62
7
  6
CONTINUOUS
 10
126.545375
 20
179.852188
 11
126.545375
 21
181.202185
  0
LINE
  8
1
 62
7
  6
CONTINUOUS
 10
126.545375
 20
181.202185
 11
82.545394
 21
181.202185
  0
LINE
  8
1
 62
7
  6
CONTINUOUS
 10
119.545382
 20
217.702174
 11
119.545382
 21
215.202175
  0
LINE
  8
1
 62
7
  6
CONTINUOUS
 10
123.545378
 20
217.702174
 11
119.545382
 21
217.702174
  0
LINE
  8
1
 62
7
  6
CONTINUOUS
 10
85.545394
 20
217.702174
 11
89.545390
 21
217.702174
  0
LINE
  8
1
 62
7
  6
CONTINUOUS
 10
89.545390
 20
217.702174
 11
89.545390
 21
215.202175
  0
LINE
  8
1
 62
7
  6
CONTINUOUS
 10
119.545382
 20
237.112167
 11
123.545378
 21
237.112167
  0
LINE
  8
1
 62
7
  6
CONTINUOUS
 10
119.545382
 20
239.202167
 11
119.545382
 21
237.112167
  0
LINE
  8
1
 62
7
  6
CONTINUOUS
 10
89.545390
 20
237.112167
 11
85.545394
 21
237.112167
  0
LINE
  8
1
 62
7
  6
CONTINUOUS
 10
89.545390
 20
239.202167
 11
89.545390
 21
237.112167
  0
LINE
  8
1
 62
7
  6
CONTINUOUS
 10
82.545394
 20
243.552161
 11
126.545377
 21
243.552161
  0
LINE
  8
1
 62
7
  6
CONTINUOUS
 10
81.445395
 20
253.552157
 11
127.645376
 21
253.552157
  0
ARC
  8
1
 62
7
  6
CONTINUOUS
 10
125.545376
 20
177.732191
 40
2.100001
 50
0.000000
 51
90.011670
  0
ARC
  8
1
 62
7
  6
CONTINUOUS
 10
83.545396
 20
177.732191
 40
2.100001
 50
90.011670
 51
-179.976661
  0
LINE
  8
1
 62
7
  6
CONTINUOUS
 10
121.545380
 20
319.752129
 11
120.287012
 21
318.493766
  0
ARC
  8
1
 62
7
  6
CONTINUOUS
 10
115.045385
 20
317.652131
 40
1.500000
 50
90.011670
 51
-179.976661
  0
ARC
  8
1
 62
7
  6
CONTINUOUS
 10
113.045381
 20
317.662129
 40
0.499998
 50
-90.022287
 51
-0.010617
  0
LINE
  8
1
 62
7
  6
CONTINUOUS
 10
125.045380
 20
317.152130
 11
124.955378
 21
318.262129
  0
LINE
  8
1
 62
7
  6
CONTINUOUS
 10
121.545380
 20
319.752129
 11
123.145377
 21
318.152131
  0
ARC
  8
1
 62
7
  6
CONTINUOUS
 10
123.665379
 20
318.162129
 40
1.300000
 50
4.411775
 51
74.369922
  0
ARC
  8
1
 62
7
  6
CONTINUOUS
 10
96.045390
 20
317.662129
 40
0.499998
 50
-179.989383
 51
-89.977713
  0
ARC
  8
1
 62
7
  6
CONTINUOUS
 10
94.045387
 20
317.652131
 40
1.500000
 50
-0.023339
 51
89.988330
  0
LINE
  8
1
 62
7
  6
CONTINUOUS
 10
84.145397
 20
318.272133
 11
84.055395
 21
317.152130
  0
LINE
  8
1
 62
7
  6
CONTINUOUS
 10
87.545392
 20
319.752129
 11
85.945395
 21
318.152131
  0
ARC
  8
1
 62
7
  6
CONTINUOUS
 10
87.545392
 20
310.752135
 40
8.999996
 50
74.083443
 51
105.882601
  0
ARC
  8
1
 62
7
  6
CONTINUOUS
 10
85.445394
 20
318.152131
 40
1.300000
 50
106.054488
 51
174.694832
  0
LINE
  8
1
 62
7
  6
CONTINUOUS
 10
127.645376
 20
253.552157
 11
127.645376
 21
245.652160
  0
ARC
  8
1
 62
7
  6
CONTINUOUS
 10
125.545376
 20
245.652160
 40
2.100001
 50
-90.022287
 51
-0.010617
  0
LINE
  8
1
 62
7
  6
CONTINUOUS
 10
81.445395
 20
253.552157
 11
81.445395
 21
245.652160
  0
ARC
  8
1
 62
7
  6
CONTINUOUS
 10
83.545396
 20
245.652160
 40
2.100001
 50
-179.976661
 51
-90.022287
  0
LINE
  8
1
 62
7
  6
CONTINUOUS
 10
333.583597
 20
127.618873
 11
334.064596
 21
128.076744
  0
LINE
  8
1
 62
7
  6
CONTINUOUS
 10
334.064596
 20
135.202204
 11
334.064596
 21
128.076744
  0
LINE
  8
1
 62
7
  6
CONTINUOUS
 10
336.772937
 20
124.688559
 11
336.502093
 21
124.959403
  0
LINE
  8
1
 62
7
  6
CONTINUOUS
 10
336.772937
 20
113.313585
 11
336.502093
 21
113.042741
  0
ARC
  8
1
 62
7
  6
CONTINUOUS
 10
332.168762
 20
121.519979
 40
8.206384
 50
-124.128212
 51
-55.871788
  0
ARC
  8
1
 62
7
  6
CONTINUOUS
 10
332.168762
 20
116.535743
 40
8.152806
 50
55.616197
 51
124.383803
  0
LINE
  8
1
 62
7
  6
CONTINUOUS
 10
336.772926
 20
124.688570
 11
336.772926
 21
113.313575
  0
ARC
  8
1
 62
7
  6
CONTINUOUS
 10
330.814596
 20
136.833220
 40
8.756476
 50
-111.786787
 51
-68.213213
  0
LINE
  8
1
 62
7
  6
CONTINUOUS
 10
333.583597
 20
127.618873
 11
333.583597
 21
124.959403
  0
LINE
  8
1
 62
7
  6
CONTINUOUS
 10
334.064596
 20
108.709408
 11
336.502093
 21
113.042741
  0
LINE
  8
1
 62
7
  6
CONTINUOUS
 10
321.545599
 20
127.618873
 11
321.064601
 21
128.076744
  0
LINE
  8
1
 62
7
  6
CONTINUOUS
 10
321.064601
 20
135.202204
 11
321.064601
 21
128.076744
  0
LINE
  8
1
 62
7
  6
CONTINUOUS
 10
318.627103
 20
124.959403
 11
318.356249
 21
124.688549
  0
LINE
  8
1
 62
7
  6
CONTINUOUS
 10
318.356270
 20
113.313575
 11
318.627103
 21
113.042741
  0
ARC
  8
1
 62
7
  6
CONTINUOUS
 10
322.960434
 20
121.519979
 40
8.206384
 50
-124.128212
 51
-55.871788
  0
ARC
  8
1
 62
7
  6
CONTINUOUS
 10
322.960434
 20
116.535743
 40
8.152806
 50
55.616197
 51
124.383803
  0
LINE
  8
1
 62
7
  6
CONTINUOUS
 10
318.356270
 20
124.688570
 11
318.356270
 21
113.313575
  0
ARC
  8
1
 62
7
  6
CONTINUOUS
 10
324.314601
 20
136.833220
 40
8.756476
 50
-111.786787
 51
-68.213213
  0
LINE
  8
1
 62
7
  6
CONTINUOUS
 10
321.545599
 20
127.618873
 11
333.583597
 21
127.618873
  0
LINE
  8
1
 62
7
  6
CONTINUOUS
 10
321.545599
 20
127.618873
 11
321.545599
 21
124.959403
  0
LINE
  8
1
 62
7
  6
CONTINUOUS
 10
336.502093
 20
113.042741
 11
318.627103
 21
113.042741
  0
LINE
  8
1
 62
7
  6
CONTINUOUS
 10
321.064601
 20
108.709408
 11
318.627103
 21
113.042741
  0
LINE
  8
1
 62
7
  6
CONTINUOUS
 10
321.064601
 20
108.709408
 11
334.064596
 21
108.709408
  0
LINE
  8
1
 62
7
  6
CONTINUOUS
 10
336.502093
 20
124.959403
 11
318.627103
 21
124.959403
  0
LINE
  8
1
 62
7
  6
CONTINUOUS
 10
321.545599
 20
125.668875
 11
333.583597
 21
125.668875
  0
LINE
  8
1
 62
7
  6
CONTINUOUS
 10
348.424267
 20
181.211573
 11
348.424267
 21
185.772183
  0
LINE
  8
1
 62
7
  6
CONTINUOUS
 10
306.424285
 20
185.772183
 11
306.424285
 21
181.211573
  0
LINE
  8
1
 62
7
  6
CONTINUOUS
 10
305.564607
 20
181.212183
 11
349.564587
 21
181.212183
  0
LINE
  8
1
 62
7
  6
CONTINUOUS
 10
348.424267
 20
212.212173
 11
348.424267
 21
207.712177
  0
LINE
  8
1
 62
7
  6
CONTINUOUS
 10
306.424285
 20
207.712177
 11
306.424285
 21
212.212173
  0
ARC
  8
1
 62
7
  6
CONTINUOUS
 10
320.214281
 20
196.212179
 40
0.549998
 50
-135.012196
 51
45.011143
  0
LINE
  8
1
 62
7
  6
CONTINUOUS
 10
332.424275
 20
197.882182
 11
327.424278
 21
197.882182
  0
LINE
  8
1
 62
7
  6
CONTINUOUS
 10
327.424278
 20
198.992182
 11
332.424275
 21
198.992182
  0
ARC
  8
1
 62
7
  6
CONTINUOUS
 10
332.424275
 20
198.432181
 40
0.559999
 50
-89.988330
 51
89.977713
  0
LINE
  8
1
 62
7
  6
CONTINUOUS
 10
361.424265
 20
196.772183
 11
352.424266
 21
196.772183
  0
LINE
  8
1
 62
7
  6
CONTINUOUS
 10
342.424271
 20
208.712176
 11
327.424278
 21
208.712176
  0
LINE
  8
1
 62
7
  6
CONTINUOUS
 10
342.414273
 20
201.772180
 11
346.424269
 21
201.772180
  0
LINE
  8
1
 62
7
  6
CONTINUOUS
 10
342.424271
 20
207.712177
 11
342.424271
 21
208.712176
  0
LINE
  8
1
 62
7
  6
CONTINUOUS
 10
348.424267
 20
207.712177
 11
342.424271
 21
207.712177
  0
ARC
  8
1
 62
7
  6
CONTINUOUS
 10
349.924267
 20
211.772176
 40
1.500000
 50
179.976661
 51
-90.011670
  0
LINE
  8
1
 62
7
  6
CONTINUOUS
 10
369.440013
 20
207.491419
 11
370.584257
 21
206.347175
  0
LINE
  8
1
 62
7
  6
CONTINUOUS
 10
362.424262
 20
207.272176
 11
369.440013
 21
207.491419
  0
ARC
  8
1
 62
7
  6
CONTINUOUS
 10
339.174273
 20
203.512175
 40
23.249991
 50
-16.834342
 51
16.855576
  0
ARC
  8
1
 62
7
  6
CONTINUOUS
 10
374.474258
 20
203.482179
 40
23.049988
 50
163.074406
 51
-163.063788
  0
LINE
  8
1
 62
7
  6
CONTINUOUS
 10
362.424262
 20
210.272173
 11
349.924267
 21
210.272173
  0
LINE
  8
1
 62
7
  6
CONTINUOUS
 10
342.424271
 20
184.772184
 11
327.424278
 21
184.772184
  0
LINE
  8
1
 62
7
  6
CONTINUOUS
 10
342.424271
 20
185.772183
 11
342.424271
 21
184.772184
  0
LINE
  8
1
 62
7
  6
CONTINUOUS
 10
348.424267
 20
185.772183
 11
342.424271
 21
185.772183
  0
LINE
  8
1
 62
7
  6
CONTINUOUS
 10
342.414273
 20
207.712177
 11
342.414273
 21
185.772183
  0
LINE
  8
1
 62
7
  6
CONTINUOUS
 10
346.424269
 20
207.712177
 11
346.424269
 21
185.772183
  0
ARC
  8
1
 62
7
  6
CONTINUOUS
 10
349.924267
 20
181.772184
 40
1.500000
 50
90.022287
 51
179.976661
  0
LINE
  8
1
 62
7
  6
CONTINUOUS
 10
362.424262
 20
183.272184
 11
349.924267
 21
183.272184
  0
ARC
  8
1
 62
7
  6
CONTINUOUS
 10
374.634261
 20
190.032185
 40
23.209989
 50
163.131702
 51
-163.121084
  0
LINE
  8
1
 62
7
  6
CONTINUOUS
 10
370.584257
 20
187.197191
 11
369.440013
 21
186.052947
  0
LINE
  8
1
 62
7
  6
CONTINUOUS
 10
362.429725
 20
186.272012
 11
369.440013
 21
186.052947
  0
LINE
  8
1
 62
7
  6
CONTINUOUS
 10
370.584257
 20
206.347175
 11
370.584257
 21
187.197191
  0
ARC
  8
1
 62
7
  6
CONTINUOUS
 10
339.074273
 20
190.012182
 40
23.349988
 50
-16.834342
 51
16.855576
  0
LINE
  8
1
 62
7
  6
CONTINUOUS
 10
362.424262
 20
183.272184
 11
362.424262
 21
210.272173
  0
LINE
  8
1
 62
7
  6
CONTINUOUS
 10
327.424278
 20
184.772184
 11
312.434282
 21
184.772184
  0
ARC
  8
1
 62
7
  6
CONTINUOUS
 10
304.924288
 20
181.772184
 40
1.500000
 50
0.010617
 51
90.022287
  0
LINE
  8
1
 62
7
  6
CONTINUOUS
 10
292.424294
 20
183.272184
 11
304.924288
 21
183.272184
  0
LINE
  8
1
 62
7
  6
CONTINUOUS
 10
312.434282
 20
184.772184
 11
312.434282
 21
185.772183
  0
LINE
  8
1
 62
7
  6
CONTINUOUS
 10
312.434282
 20
185.772183
 11
306.424285
 21
185.772183
  0
LINE
  8
1
 62
7
  6
CONTINUOUS
 10
327.424278
 20
197.882182
 11
319.324280
 21
197.882182
  0
LINE
  8
1
 62
7
  6
CONTINUOUS
 10
319.324280
 20
198.992182
 11
327.424278
 21
198.992182
  0
LINE
  8
1
 62
7
  6
CONTINUOUS
 10
327.424278
 20
208.712176
 11
312.434282
 21
208.712176
  0
ARC
  8
1
 62
7
  6
CONTINUOUS
 10
315.534282
 20
190.052181
 40
23.109991
 50
163.074406
 51
-163.063788
  0
LINE
  8
1
 62
7
  6
CONTINUOUS
 10
293.424293
 20
196.772183
 11
302.424289
 21
196.772183
  0
ARC
  8
1
 62
7
  6
CONTINUOUS
 10
315.364284
 20
203.472178
 40
22.939990
 50
163.017110
 51
-163.006493
  0
LINE
  8
1
 62
7
  6
CONTINUOUS
 10
292.424294
 20
183.272184
 11
292.424294
 21
210.272173
  0
LINE
  8
1
 62
7
  6
CONTINUOUS
 10
312.434282
 20
201.772180
 11
308.424286
 21
201.772180
  0
ARC
  8
1
 62
7
  6
CONTINUOUS
 10
280.484301
 20
203.472178
 40
22.939990
 50
-17.006229
 51
16.970168
  0
LINE
  8
1
 62
7
  6
CONTINUOUS
 10
312.434282
 20
207.712177
 11
306.424285
 21
207.712177
  0
LINE
  8
1
 62
7
  6
CONTINUOUS
 10
312.434282
 20
208.712176
 11
312.434282
 21
207.712177
  0
ARC
  8
1
 62
7
  6
CONTINUOUS
 10
304.924288
 20
211.772176
 40
1.500000
 50
-90.011670
 51
0.000000
  0
LINE
  8
1
 62
7
  6
CONTINUOUS
 10
292.424294
 20
210.272173
 11
304.924288
 21
210.272173
  0
ARC
  8
1
 62
7
  6
CONTINUOUS
 10
280.384298
 20
190.062184
 40
23.049988
 50
-16.948933
 51
16.912872
  0
LINE
  8
1
 62
7
  6
CONTINUOUS
 10
308.424286
 20
207.712177
 11
308.424286
 21
185.772183
  0
LINE
  8
1
 62
7
  6
CONTINUOUS
 10
312.434282
 20
207.712177
 11
312.434282
 21
185.772183
  0
LINE
  8
1
 62
7
  6
CONTINUOUS
 10
319.824278
 20
195.822181
 11
317.594281
 21
198.042183
  0
LINE
  8
1
 62
7
  6
CONTINUOUS
 10
319.324280
 20
197.882182
 11
320.604281
 21
196.592183
  0
ARC
  8
1
 62
7
  6
CONTINUOUS
 10
317.984278
 20
198.432181
 40
0.559999
 50
134.267351
 51
-134.288585
  0
LINE
  8
1
 62
7
  6
CONTINUOUS
 10
319.824278
 20
201.042180
 11
317.594281
 21
198.822181
  0
LINE
  8
1
 62
7
  6
CONTINUOUS
 10
320.604281
 20
200.262180
 11
319.324280
 21
198.992182
  0
ARC
  8
1
 62
7
  6
CONTINUOUS
 10
320.214281
 20
200.652183
 40
0.549998
 50
-45.011143
 51
135.012196
  0
ARC
  8
1
 62
7
  6
CONTINUOUS
 10
327.564277
 20
193.152186
 40
0.830000
 50
-89.988330
 51
89.977713
  0
ARC
  8
1
 62
7
  6
CONTINUOUS
 10
327.564277
 20
195.382184
 40
1.389999
 50
26.551285
 51
89.977713
  0
LINE
  8
1
 62
7
  6
CONTINUOUS
 10
328.904276
 20
195.812183
 11
328.794276
 21
196.012184
  0
ARC
  8
1
 62
7
  6
CONTINUOUS
 10
328.674277
 20
195.652185
 40
0.280002
 50
-157.081688
 51
33.083004
  0
LINE
  8
1
 62
7
  6
CONTINUOUS
 10
328.324277
 20
195.722181
 11
328.414276
 21
195.542184
  0
ARC
  8
1
 62
7
  6
CONTINUOUS
 10
327.564277
 20
195.382184
 40
0.830000
 50
24.087567
 51
89.977713
  0
ARC
  8
1
 62
7
  6
CONTINUOUS
 10
327.564277
 20
193.152186
 40
1.389999
 50
-89.988330
 51
89.977713
  0
LINE
  8
1
 62
7
  6
CONTINUOUS
 10
332.424275
 20
196.212184
 11
331.314273
 21
196.212184
  0
LINE
  8
1
 62
7
  6
CONTINUOUS
 10
332.424275
 20
194.542183
 11
332.424275
 21
196.212184
  0
LINE
  8
1
 62
7
  6
CONTINUOUS
 10
331.314273
 20
194.542183
 11
332.424275
 21
194.542183
  0
ARC
  8
1
 62
7
  6
CONTINUOUS
 10
331.314273
 20
195.382184
 40
0.830000
 50
89.977713
 51
-89.998948
  0
LINE
  8
1
 62
7
  6
CONTINUOUS
 10
332.424275
 20
193.982187
 11
331.314273
 21
193.982187
  0
LINE
  8
1
 62
7
  6
CONTINUOUS
 10
332.424275
 20
192.322186
 11
332.424275
 21
193.982187
  0
LINE
  8
1
 62
7
  6
CONTINUOUS
 10
331.314273
 20
192.322186
 11
332.424275
 21
192.322186
  0
ARC
  8
1
 62
7
  6
CONTINUOUS
 10
331.314273
 20
193.152186
 40
0.830000
 50
89.977713
 51
-89.998948
  0
ARC
  8
1
 62
7
  6
CONTINUOUS
 10
331.314273
 20
193.152186
 40
1.389999
 50
126.532420
 51
-89.998948
  0
ARC
  8
1
 62
7
  6
CONTINUOUS
 10
331.314273
 20
195.382184
 40
1.389999
 50
88.774502
 51
-126.782838
  0
LINE
  8
1
 62
7
  6
CONTINUOUS
 10
332.984274
 20
196.772183
 11
331.344272
 21
196.772183
  0
LINE
  8
1
 62
7
  6
CONTINUOUS
 10
332.984274
 20
191.772185
 11
332.984274
 21
196.772183
  0
LINE
  8
1
 62
7
  6
CONTINUOUS
 10
331.314273
 20
191.772185
 11
332.984274
 21
191.772185
  0
LINE
  8
1
 62
7
  6
CONTINUOUS
 10
324.364277
 20
193.882184
 11
324.364277
 21
192.042184
  0
LINE
  8
1
 62
7
  6
CONTINUOUS
 10
324.364277
 20
196.482185
 11
324.364277
 21
194.662181
  0
ARC
  8
1
 62
7
  6
CONTINUOUS
 10
324.644277
 20
196.482185
 40
0.280002
 50
0.023339
 51
179.989383
  0
LINE
  8
1
 62
7
  6
CONTINUOUS
 10
324.924279
 20
192.042184
 11
324.924279
 21
196.482185
  0
ARC
  8
1
 62
7
  6
CONTINUOUS
 10
324.644277
 20
192.042184
 40
0.280002
 50
180.000000
 51
0.023339
  0
ARC
  8
1
 62
7
  6
CONTINUOUS
 10
326.174278
 20
192.882185
 40
0.280002
 50
43.510836
 51
-157.092306
  0
LINE
  8
1
 62
7
  6
CONTINUOUS
 10
326.524276
 20
192.812186
 11
326.374276
 21
193.072182
  0
ARC
  8
1
 62
7
  6
CONTINUOUS
 10
327.284275
 20
193.152186
 40
0.830000
 50
-155.248223
 51
-89.988330
  0
ARC
  8
1
 62
7
  6
CONTINUOUS
 10
327.284275
 20
195.382184
 40
1.389999
 50
89.977713
 51
-89.998948
  0
ARC
  8
1
 62
7
  6
CONTINUOUS
 10
327.284275
 20
195.382184
 40
0.830000
 50
89.977713
 51
-89.998948
  0
ARC
  8
1
 62
7
  6
CONTINUOUS
 10
327.284275
 20
193.152186
 40
1.389999
 50
-152.154251
 51
-89.988330
  0
LINE
  8
1
 62
7
  6
CONTINUOUS
 10
325.914277
 20
192.782185
 11
326.054280
 21
192.502185
  0
LINE
  8
1
 62
7
  6
CONTINUOUS
 10
322.344281
 20
191.842184
 11
324.364277
 21
193.882184
  0
LINE
  8
1
 62
7
  6
CONTINUOUS
 10
324.364277
 20
194.662181
 11
322.344281
 21
196.682183
  0
ARC
  8
1
 62
7
  6
CONTINUOUS
 10
322.144278
 20
192.042184
 40
0.280002
 50
133.522505
 51
-45.021761
  0
LINE
  8
1
 62
7
  6
CONTINUOUS
 10
323.984278
 20
194.272184
 11
321.954276
 21
192.242187
  0
LINE
  8
1
 62
7
  6
CONTINUOUS
 10
321.944278
 20
196.292186
 11
323.984278
 21
194.272184
  0
ARC
  8
1
 62
7
  6
CONTINUOUS
 10
322.144278
 20
196.482185
 40
0.280002
 50
46.375625
 51
-136.465825
  0
LINE
  8
1
 62
7
  6
CONTINUOUS
 10
327.564598
 20
134.773490
 11
327.564598
 21
128.242190
  0
ARC
  8
1
 62
7
  6
CONTINUOUS
 10
330.897930
 20
122.029209
 40
13.172995
 50
75.342356
 51
104.657644
  0
ARC
  8
1
 62
7
  6
CONTINUOUS
 10
324.231266
 20
122.029209
 40
13.172995
 50
75.342356
 51
104.657644
  0
LINE
  8
1
 62
7
  6
CONTINUOUS
 10
346.964591
 20
169.802193
 11
346.964591
 21
168.502190
  0
LINE
  8
1
 62
7
  6
CONTINUOUS
 10
314.064605
 20
135.202204
 11
341.064591
 21
135.202204
  0
ARC
  8
1
 62
7
  6
CONTINUOUS
 10
344.964593
 20
168.502190
 40
2.000001
 50
-56.632968
 51
0.000000
  0
LINE
  8
1
 62
7
  6
CONTINUOUS
 10
346.064589
 20
166.831863
 11
346.064589
 21
140.202202
  0
ARC
  8
1
 62
7
  6
CONTINUOUS
 10
341.064591
 20
140.202202
 40
4.999998
 50
-90.022287
 51
-0.010617
  0
LINE
  8
1
 62
7
  6
CONTINUOUS
 10
309.064605
 20
166.831863
 11
346.064589
 21
166.831863
  0
LINE
  8
1
 62
7
  6
CONTINUOUS
 10
308.164606
 20
169.802193
 11
308.164606
 21
168.502190
  0
ARC
  8
1
 62
7
  6
CONTINUOUS
 10
310.164604
 20
168.502190
 40
2.000001
 50
180.000000
 51
-123.367032
  0
ARC
  8
1
 62
7
  6
CONTINUOUS
 10
314.064605
 20
140.202202
 40
4.999998
 50
-179.976661
 51
-90.022287
  0
LINE
  8
1
 62
7
  6
CONTINUOUS
 10
309.064607
 20
166.831863
 11
309.064607
 21
140.202202
  0
LINE
  8
1
 62
7
  6
CONTINUOUS
 10
324.464598
 20
327.407127
 11
330.664595
 21
327.407127
  0
LINE
  8
1
 62
7
  6
CONTINUOUS
 10
312.564602
 20
217.712172
 11
312.564602
 21
215.212173
  0
LINE
  8
1
 62
7
  6
CONTINUOUS
 10
308.564606
 20
217.712172
 11
312.564602
 21
217.712172
  0
LINE
  8
1
 62
7
  6
CONTINUOUS
 10
342.564594
 20
217.712172
 11
342.564594
 21
215.212173
  0
LINE
  8
1
 62
7
  6
CONTINUOUS
 10
346.564590
 20
217.712172
 11
342.564594
 21
217.712172
  0
LINE
  8
1
 62
7
  6
CONTINUOUS
 10
308.564604
 20
237.212167
 11
308.564604
 21
215.212173
  0
LINE
  8
1
 62
7
  6
CONTINUOUS
 10
308.564606
 20
237.122165
 11
308.564606
 21
239.212165
  0
LINE
  8
1
 62
7
  6
CONTINUOUS
 10
312.564602
 20
237.122165
 11
308.564606
 21
237.122165
  0
LINE
  8
1
 62
7
  6
CONTINUOUS
 10
312.564602
 20
239.212165
 11
312.564602
 21
237.122165
  0
LINE
  8
1
 62
7
  6
CONTINUOUS
 10
346.564593
 20
237.212167
 11
346.564593
 21
215.212173
  0
LINE
  8
1
 62
7
  6
CONTINUOUS
 10
346.564590
 20
237.122165
 11
346.564590
 21
239.212165
  0
LINE
  8
1
 62
7
  6
CONTINUOUS
 10
342.564594
 20
237.122165
 11
346.564590
 21
237.122165
  0
LINE
  8
1
 62
7
  6
CONTINUOUS
 10
342.564594
 20
239.212165
 11
342.564594
 21
237.122165
  0
LINE
  8
1
 62
7
  6
CONTINUOUS
 10
314.564600
 20
215.212176
 11
314.564600
 21
222.662170
  0
LINE
  8
1
 62
7
  6
CONTINUOUS
 10
340.564591
 20
215.212173
 11
340.564591
 21
222.662170
  0
LINE
  8
1
 62
7
  6
CONTINUOUS
 10
340.564591
 20
239.212165
 11
340.564591
 21
231.842168
  0
LINE
  8
1
 62
7
  6
CONTINUOUS
 10
314.564600
 20
239.212165
 11
314.564600
 21
231.842168
  0
LINE
  8
1
 62
7
  6
CONTINUOUS
 10
349.664590
 20
215.212173
 11
337.969593
 21
215.212173
  0
LINE
  8
1
 62
7
  6
CONTINUOUS
 10
305.464604
 20
215.212173
 11
317.262933
 21
215.212173
  0
LINE
  8
1
 62
7
  6
CONTINUOUS
 10
349.664590
 20
239.212165
 11
337.851258
 21
239.212165
  0
LINE
  8
1
 62
7
  6
CONTINUOUS
 10
305.464604
 20
239.212165
 11
317.022933
 21
239.212165
  0
LINE
  8
1
 62
7
  6
CONTINUOUS
 10
331.564599
 20
286.022140
 11
323.564597
 21
286.022140
  0
LINE
  8
1
 62
7
  6
CONTINUOUS
 10
323.564597
 20
288.267479
 11
323.564597
 21
286.022140
  0
LINE
  8
1
 62
7
  6
CONTINUOUS
 10
331.564599
 20
290.896812
 11
331.564599
 21
286.022140
  0
LINE
  8
1
 62
7
  6
CONTINUOUS
 10
331.564599
 20
301.826805
 11
331.564599
 21
296.398138
  0
LINE
  8
1
 62
7
  6
CONTINUOUS
 10
323.564597
 20
299.197472
 11
323.564597
 21
293.766137
  0
LINE
  8
1
 62
7
  6
CONTINUOUS
 10
323.564597
 20
305.442134
 11
323.564597
 21
304.582471
  0
LINE
  8
1
 62
7
  6
CONTINUOUS
 10
312.564602
 20
300.967142
 11
326.180208
 21
305.442134
  0
LINE
  8
1
 62
7
  6
CONTINUOUS
 10
342.564591
 20
262.067147
 11
328.827289
 21
257.552155
  0
LINE
  8
1
 62
7
  6
CONTINUOUS
 10
342.564591
 20
267.567142
 11
312.564602
 21
257.707147
  0
LINE
  8
1
 62
7
  6
CONTINUOUS
 10
342.564591
 20
272.887147
 11
312.564602
 21
263.017151
  0
LINE
  8
1
 62
7
  6
CONTINUOUS
 10
342.564591
 20
278.382139
 11
312.564602
 21
268.522146
  0
LINE
  8
1
 62
7
  6
CONTINUOUS
 10
342.564591
 20
283.697142
 11
312.564602
 21
273.837146
  0
LINE
  8
1
 62
7
  6
CONTINUOUS
 10
342.564591
 20
289.197138
 11
312.564602
 21
279.337144
  0
LINE
  8
1
 62
7
  6
CONTINUOUS
 10
342.564591
 20
294.512140
 11
312.564602
 21
284.652147
  0
LINE
  8
1
 62
7
  6
CONTINUOUS
 10
342.564591
 20
300.017135
 11
312.564602
 21
290.147139
  0
LINE
  8
1
 62
7
  6
CONTINUOUS
 10
305.564607
 20
179.862186
 11
349.564590
 21
179.862186
  0
LINE
  8
1
 62
7
  6
CONTINUOUS
 10
305.564607
 20
179.862186
 11
305.564607
 21
181.212183
  0
LINE
  8
1
 62
7
  6
CONTINUOUS
 10
350.664589
 20
169.802193
 11
304.464607
 21
169.802193
  0
LINE
  8
1
 62
7
  6
CONTINUOUS
 10
304.464607
 20
169.802193
 11
304.474605
 21
177.952190
  0
ARC
  8
1
 62
7
  6
CONTINUOUS
 10
306.564603
 20
177.762188
 40
2.100001
 50
89.988330
 51
174.786084
  0
ARC
  8
1
 62
7
  6
CONTINUOUS
 10
306.574601
 20
177.862185
 40
2.100001
 50
177.536281
 51
-180.000000
  0
LINE
  8
1
 62
7
  6
CONTINUOUS
 10
350.664589
 20
169.802193
 11
350.654591
 21
177.952190
  0
ARC
  8
1
 62
7
  6
CONTINUOUS
 10
348.564591
 20
177.762188
 40
2.100001
 50
5.213916
 51
90.011670
  0
ARC
  8
1
 62
7
  6
CONTINUOUS
 10
348.554590
 20
177.862185
 40
2.100001
 50
0.000000
 51
2.463719
  0
LINE
  8
1
 62
7
  6
CONTINUOUS
 10
349.564587
 20
179.862186
 11
349.564587
 21
181.212183
  0
LINE
  8
1
 62
7
  6
CONTINUOUS
 10
330.664595
 20
327.407127
 11
330.664595
 21
319.007132
  0
LINE
  8
1
 62
7
  6
CONTINUOUS
 10
324.464598
 20
319.007132
 11
324.464598
 21
327.407127
  0
LINE
  8
1
 62
7
  6
CONTINUOUS
 10
342.564591
 20
305.442134
 11
312.564602
 21
295.582141
  0
LINE
  8
1
 62
7
  6
CONTINUOUS
 10
335.364595
 20
240.712162
 11
319.764601
 21
240.712162
  0
LINE
  8
1
 62
7
  6
CONTINUOUS
 10
311.974602
 20
227.212167
 11
319.764601
 21
240.712162
  0
LINE
  8
1
 62
7
  6
CONTINUOUS
 10
304.464607
 20
242.282161
 11
350.664589
 21
242.282161
  0
LINE
  8
1
 62
7
  6
CONTINUOUS
 10
305.564604
 20
243.582163
 11
349.464589
 21
243.582163
  0
LINE
  8
1
 62
7
  6
CONTINUOUS
 10
304.483386
 20
253.552157
 11
350.644585
 21
253.552157
  0
LINE
  8
1
 62
7
  6
CONTINUOUS
 10
312.564602
 20
257.552155
 11
342.564591
 21
257.552155
  0
LINE
  8
1
 62
7
  6
CONTINUOUS
 10
312.564602
 20
305.442134
 11
342.564591
 21
305.442134
  0
LINE
  8
1
 62
7
  6
CONTINUOUS
 10
312.564602
 20
307.042134
 11
342.564591
 21
307.042134
  0
LINE
  8
1
 62
7
  6
CONTINUOUS
 10
331.507452
 20
312.522131
 11
319.521741
 21
312.522131
  0
LINE
  8
1
 62
7
  6
CONTINUOUS
 10
319.521741
 20
312.522131
 11
319.521741
 21
315.522128
  0
LINE
  8
1
 62
7
  6
CONTINUOUS
 10
327.564598
 20
315.522128
 11
307.914603
 21
315.522128
  0
LINE
  8
1
 62
7
  6
CONTINUOUS
 10
306.314603
 20
317.122133
 11
348.814588
 21
317.122133
  0
LINE
  8
1
 62
7
  6
CONTINUOUS
 10
306.314603
 20
317.122133
 11
306.314603
 21
253.552157
  0
LINE
  8
1
 62
7
  6
CONTINUOUS
 10
317.564600
 20
319.162128
 11
337.564594
 21
319.162128
  0
ARC
  8
1
 62
7
  6
CONTINUOUS
 10
317.564600
 20
317.162130
 40
1.999998
 50
90.000000
 51
180.000000
  0
LINE
  8
1
 62
7
  6
CONTINUOUS
 10
307.084605
 20
317.122133
 11
307.164604
 21
318.272130
  0
LINE
  8
1
 62
7
  6
CONTINUOUS
 10
310.574602
 20
319.762127
 11
308.974602
 21
318.162129
  0
ARC
  8
1
 62
7
  6
CONTINUOUS
 10
308.454603
 20
318.172127
 40
1.300000
 50
105.630078
 51
175.588225
  0
LINE
  8
1
 62
7
  6
CONTINUOUS
 10
313.974600
 20
318.282131
 11
314.054602
 21
317.122133
  0
LINE
  8
1
 62
7
  6
CONTINUOUS
 10
310.574602
 20
319.762127
 11
312.174600
 21
318.162129
  0
ARC
  8
1
 62
7
  6
CONTINUOUS
 10
310.574602
 20
310.762136
 40
8.999996
 50
74.117399
 51
105.916557
  0
ARC
  8
1
 62
7
  6
CONTINUOUS
 10
312.674600
 20
318.162129
 40
1.300000
 50
5.247872
 51
73.945512
  0
LINE
  8
1
 62
7
  6
CONTINUOUS
 10
323.564597
 20
307.042134
 11
323.564597
 21
312.522131
  0
LINE
  8
1
 62
7
  6
CONTINUOUS
 10
312.564602
 20
315.522128
 11
312.564602
 21
253.552157
  0
ARC
  8
1
 62
7
  6
CONTINUOUS
 10
306.564603
 20
245.432161
 40
2.100001
 50
172.905941
 51
-118.511011
  0
LINE
  8
1
 62
7
  6
CONTINUOUS
 10
304.484606
 20
253.552157
 11
304.474605
 21
245.692159
  0
LINE
  8
1
 62
7
  6
CONTINUOUS
 10
305.564604
 20
243.582163
 11
305.564604
 21
242.282161
  0
LINE
  8
1
 62
7
  6
CONTINUOUS
 10
308.064603
 20
222.212169
 11
308.564604
 21
222.212169
  0
LINE
  8
1
 62
7
  6
CONTINUOUS
 10
347.064591
 20
222.212169
 11
346.564593
 21
222.212169
  0
LINE
  8
1
 62
7
  6
CONTINUOUS
 10
308.544605
 20
232.212169
 11
308.064603
 21
232.212169
  0
ARC
  8
1
 62
7
  6
CONTINUOUS
 10
306.564603
 20
237.212167
 40
1.999998
 50
-0.023339
 51
89.988330
  0
LINE
  8
1
 62
7
  6
CONTINUOUS
 10
304.464607
 20
242.282161
 11
304.464607
 21
240.212164
  0
ARC
  8
1
 62
7
  6
CONTINUOUS
 10
305.464604
 20
240.212164
 40
0.999999
 50
-179.989383
 51
-89.977713
  0
LINE
  8
1
 62
7
  6
CONTINUOUS
 10
308.064603
 20
232.212169
 11
308.064603
 21
222.212169
  0
CIRCLE
  8
1
 62
7
  6
CONTINUOUS
 10
327.564598
 20
227.212167
 40
9.319995
  0
LINE
  8
1
 62
7
  6
CONTINUOUS
 10
335.675282
 20
305.442134
 11
327.564598
 21
305.442134
  0
LINE
  8
1
 62
7
  6
CONTINUOUS
 10
331.564599
 20
307.042134
 11
331.564599
 21
312.522131
  0
LINE
  8
1
 62
7
  6
CONTINUOUS
 10
335.607456
 20
312.522131
 11
335.607456
 21
315.522128
  0
LINE
  8
1
 62
7
  6
CONTINUOUS
 10
331.321739
 20
312.522131
 11
335.607456
 21
312.522131
  0
LINE
  8
1
 62
7
  6
CONTINUOUS
 10
339.564594
 20
317.122133
 11
339.564594
 21
317.162130
  0
ARC
  8
1
 62
7
  6
CONTINUOUS
 10
337.564594
 20
317.162130
 40
1.999998
 50
0.000000
 51
90.011670
  0
LINE
  8
1
 62
7
  6
CONTINUOUS
 10
341.154594
 20
318.282131
 11
341.074592
 21
317.122133
  0
LINE
  8
1
 62
7
  6
CONTINUOUS
 10
348.044589
 20
317.122133
 11
347.964590
 21
318.272130
  0
LINE
  8
1
 62
7
  6
CONTINUOUS
 10
344.554591
 20
319.762127
 11
346.154591
 21
318.162129
  0
LINE
  8
1
 62
7
  6
CONTINUOUS
 10
344.554591
 20
319.762127
 11
342.954591
 21
318.162129
  0
ARC
  8
1
 62
7
  6
CONTINUOUS
 10
344.554591
 20
310.762136
 40
8.999996
 50
74.083443
 51
105.882601
  0
ARC
  8
1
 62
7
  6
CONTINUOUS
 10
342.454591
 20
318.162129
 40
1.300000
 50
106.054488
 51
174.752128
  0
ARC
  8
1
 62
7
  6
CONTINUOUS
 10
346.674591
 20
318.172127
 40
1.300000
 50
4.411775
 51
74.369922
  0
LINE
  8
1
 62
7
  6
CONTINUOUS
 10
347.064591
 20
232.212169
 11
347.064591
 21
222.212169
  0
LINE
  8
1
 62
7
  6
CONTINUOUS
 10
346.584588
 20
232.212169
 11
347.064591
 21
232.212169
  0
ARC
  8
1
 62
7
  6
CONTINUOUS
 10
348.564591
 20
237.212167
 40
1.999998
 50
90.011670
 51
-179.976661
  0
LINE
  8
1
 62
7
  6
CONTINUOUS
 10
350.664589
 20
242.282161
 11
350.664589
 21
240.212164
  0
ARC
  8
1
 62
7
  6
CONTINUOUS
 10
349.664590
 20
240.212164
 40
0.999999
 50
-90.022287
 51
-0.010617
  0
ARC
  8
1
 62
7
  6
CONTINUOUS
 10
348.564591
 20
245.432161
 40
2.100001
 50
-61.488989
 51
7.094059
  0
LINE
  8
1
 62
7
  6
CONTINUOUS
 10
350.644585
 20
253.552157
 11
350.654591
 21
245.692159
  0
LINE
  8
1
 62
7
  6
CONTINUOUS
 10
349.564590
 20
243.582163
 11
349.564590
 21
242.282161
  0
LINE
  8
1
 62
7
  6
CONTINUOUS
 10
342.564591
 20
315.522128
 11
342.564591
 21
253.552157
  0
LINE
  8
1
 62
7
  6
CONTINUOUS
 10
343.154594
 20
227.212167
 11
335.364595
 21
240.712162
  0
LINE
  8
1
 62
7
  6
CONTINUOUS
 10
327.564598
 20
315.522128
 11
347.214591
 21
315.522128
  0
LINE
  8
1
 62
7
  6
CONTINUOUS
 10
348.814588
 20
317.122133
 11
348.814588
 21
253.552157
  0
LINE
  8
1
 62
7
  6
CONTINUOUS
 10
304.464607
 20
212.212173
 11
304.464607
 21
214.212174
  0
LINE
  8
1
 62
7
  6
CONTINUOUS
 10
304.464607
 20
212.212173
 11
350.664589
 21
212.212173
  0
LINE
  8
1
 62
7
  6
CONTINUOUS
 10
319.764601
 20
213.712173
 11
311.974602
 21
227.212167
  0
LINE
  8
1
 62
7
  6
CONTINUOUS
 10
335.364595
 20
213.712173
 11
319.764601
 21
213.712173
  0
ARC
  8
1
 62
7
  6
CONTINUOUS
 10
306.564603
 20
217.212171
 40
1.999998
 50
-89.977713
 51
-0.023339
  0
ARC
  8
1
 62
7
  6
CONTINUOUS
 10
305.464604
 20
214.212174
 40
0.999999
 50
89.988330
 51
180.000000
  0
CIRCLE
  8
1
 62
7
  6
CONTINUOUS
 10
327.564598
 20
227.212167
 40
13.419994
  0
ARC
  8
1
 62
7
  6
CONTINUOUS
 10
348.564591
 20
217.212171
 40
1.999998
 50
-179.976661
 51
-90.022287
  0
LINE
  8
1
 62
7
  6
CONTINUOUS
 10
350.664589
 20
212.212173
 11
350.664589
 21
214.212174
  0
ARC
  8
1
 62
7
  6
CONTINUOUS
 10
349.664590
 20
214.212174
 40
0.999999
 50
0.000000
 51
90.011670
  0
LINE
  8
1
 62
7
  6
CONTINUOUS
 10
335.364595
 20
213.712173
 11
343.154594
 21
227.212167
  0
TEXT
  8
1
 62
7
  6
CONTINUOUS
 10
226.056560
 20
188.355593
 40
6.000000
 41
1.000000
  1
(バイパス側)
  7
KANJI
 50
0.000000
 51
0.000000
  0
TEXT
  8
1
 62
7
  6
CONTINUOUS
 10
238.863800
 20
198.280622
 40
6.000000
 41
1.000000
  1
出口
  7
KANJI
 50
0.000000
 51
0.000000
  0
TEXT
  8
1
 62
7
  6
CONTINUOUS
 10
184.691348
 20
219.111845
 40
6.000000
 41
1.000000
  1
(メイン側)
  7
KANJI
 50
0.000000
 51
0.000000
  0
TEXT
  8
1
 62
7
  6
CONTINUOUS
 10
195.960908
 20
228.289615
 40
6.000000
 41
1.000000
  1
出口
  7
KANJI
 50
0.000000
 51
0.000000
  0
LINE
  8
2
 62
5
  6
CONTINUOUS
 10
269.090970
 20
196.806495
 11
269.090970
 21
227.212167
  0
LINE
  8
2
 62
5
  6
CONTINUOUS
 10
267.424304
 20
196.806495
 11
270.786880
 21
196.806495
  0
LINE
  8
2
 62
5
  6
CONTINUOUS
 10
267.424304
 20
227.212167
 11
302.637941
 21
227.212167
  0
LINE
  8
2
 62
5
  6
CONTINUOUS
 10
269.090970
 20
196.806495
 11
268.055694
 21
200.670198
  0
LINE
  8
2
 62
5
  6
CONTINUOUS
 10
269.090970
 20
196.806495
 11
270.126246
 21
200.670198
  0
LINE
  8
2
 62
5
  6
CONTINUOUS
 10
269.090970
 20
227.212167
 11
270.126246
 21
223.348463
  0
LINE
  8
2
 62
5
  6
CONTINUOUS
 10
269.090970
 20
227.212167
 11
268.055694
 21
223.348463
  0
TEXT
  8
2
 62
5
  6
CONTINUOUS
 10
269.090970
 20
207.509331
 40
6.000000
 41
1.000000
  1
約P
  7
KANJI
 50
90.000000
 51
0.000000
  0
LINE
  8
2
 62
5
  6
CONTINUOUS
 10
292.424294
 20
91.920473
 11
362.424262
 21
91.920473
  0
LINE
  8
2
 62
5
  6
CONTINUOUS
 10
292.424294
 20
90.253807
 11
292.424294
 21
182.438851
  0
LINE
  8
2
 62
5
  6
CONTINUOUS
 10
362.424262
 20
90.253807
 11
362.424262
 21
182.438851
  0
LINE
  8
2
 62
5
  6
CONTINUOUS
 10
292.424294
 20
91.920473
 11
296.287997
 21
92.955749
  0
LINE
  8
2
 62
5
  6
CONTINUOUS
 10
292.424294
 20
91.920473
 11
296.287997
 21
90.885196
  0
LINE
  8
2
 62
5
  6
CONTINUOUS
 10
362.424262
 20
91.920473
 11
358.560558
 21
90.885196
  0
LINE
  8
2
 62
5
  6
CONTINUOUS
 10
362.424262
 20
91.920473
 11
358.560558
 21
92.955749
  0
TEXT
  8
2
 62
5
  6
CONTINUOUS
 10
325.924278
 20
91.920473
 40
6.000000
 41
0.500000
  1
L
  7
KANJI
 50
0.000000
 51
0.000000
  0
LINE
  8
2
 62
5
  6
CONTINUOUS
 10
179.545354
 20
112.902212
 11
179.545354
 21
327.407127
  0
LINE
  8
2
 62
5
  6
CONTINUOUS
 10
181.212020
 20
112.902212
 11
108.128715
 21
112.902212
  0
LINE
  8
2
 62
5
  6
CONTINUOUS
 10
181.212020
 20
327.407127
 11
108.478716
 21
327.407127
  0
LINE
  8
2
 62
5
  6
CONTINUOUS
 10
179.545354
 20
112.902212
 11
178.510078
 21
116.765915
  0
LINE
  8
2
 62
5
  6
CONTINUOUS
 10
179.545354
 20
112.902212
 11
180.580630
 21
116.765915
  0
LINE
  8
2
 62
5
  6
CONTINUOUS
 10
179.545354
 20
327.407127
 11
180.580630
 21
323.543424
  0
LINE
  8
2
 62
5
  6
CONTINUOUS
 10
179.545354
 20
327.407127
 11
178.510078
 21
323.543424
  0
TEXT
  8
2
 62
5
  6
CONTINUOUS
 10
179.545354
 20
213.821337
 40
6.000000
 41
1.000000
  1
約Ｉ
  7
KANJI
 50
90.000000
 51
0.000000
  0
LINE
  8
2
 62
5
  6
CONTINUOUS
 10
167.878690
 20
227.202169
 11
167.878690
 21
327.407127
  0
LINE
  8
2
 62
5
  6
CONTINUOUS
 10
167.878690
 20
227.202169
 11
166.843414
 21
231.065872
  0
LINE
  8
2
 62
5
  6
CONTINUOUS
 10
167.878690
 20
227.202169
 11
168.913966
 21
231.065872
  0
LINE
  8
2
 62
5
  6
CONTINUOUS
 10
167.878690
 20
327.407127
 11
168.913966
 21
323.543424
  0
LINE
  8
2
 62
5
  6
CONTINUOUS
 10
167.878690
 20
327.407127
 11
166.843414
 21
323.543424
  0
TEXT
  8
2
 62
5
  6
CONTINUOUS
 10
167.878690
 20
272.471315
 40
6.000000
 41
1.000000
  1
約H
  7
KANJI
 50
90.000000
 51
0.000000
  0
LINE
  8
2
 62
5
  6
CONTINUOUS
 10
167.878690
 20
112.902212
 11
167.878690
 21
227.202169
  0
LINE
  8
2
 62
5
  6
CONTINUOUS
 10
167.878690
 20
112.902212
 11
166.843414
 21
116.765915
  0
LINE
  8
2
 62
5
  6
CONTINUOUS
 10
167.878690
 20
112.902212
 11
168.913966
 21
116.765915
  0
LINE
  8
2
 62
5
  6
CONTINUOUS
 10
167.878690
 20
227.202169
 11
168.913966
 21
223.338465
  0
LINE
  8
2
 62
5
  6
CONTINUOUS
 10
167.878690
 20
227.202169
 11
166.843414
 21
223.338465
  0
TEXT
  8
2
 62
5
  6
CONTINUOUS
 10
167.878690
 20
165.218855
 40
6.000000
 41
1.000000
  1
約h
  7
KANJI
 50
90.000000
 51
0.000000
  0
LINE
  8
2
 62
5
  6
CONTINUOUS
 10
86.045395
 20
147.959847
 11
123.045377
 21
147.959847
  0
LINE
  8
2
 62
5
  6
CONTINUOUS
 10
86.045395
 20
146.293181
 11
86.045395
 21
152.828182
  0
LINE
  8
2
 62
5
  6
CONTINUOUS
 10
123.045377
 20
146.293181
 11
123.045377
 21
152.389848
  0
LINE
  8
2
 62
5
  6
CONTINUOUS
 10
86.045395
 20
147.959847
 11
89.909098
 21
148.995123
  0
LINE
  8
2
 62
5
  6
CONTINUOUS
 10
86.045395
 20
147.959847
 11
89.909098
 21
146.924571
  0
LINE
  8
2
 62
5
  6
CONTINUOUS
 10
123.045377
 20
147.959847
 11
119.181673
 21
146.924571
  0
LINE
  8
2
 62
5
  6
CONTINUOUS
 10
123.045377
 20
147.959847
 11
119.181673
 21
148.995123
  0
TEXT
  8
2
 62
5
  6
CONTINUOUS
 10
100.045386
 20
147.959847
 40
6.000000
 41
1.000000
  1
φB
  7
KANJI
 50
0.000000
 51
0.000000
  0
LINE
  8
2
 62
5
  6
CONTINUOUS
 10
83.545396
 20
355.740449
 11
125.545376
 21
355.740449
  0
LINE
  8
2
 62
5
  6
CONTINUOUS
 10
83.545396
 20
357.407115
 11
83.545396
 21
317.955466
  0
LINE
  8
2
 62
5
  6
CONTINUOUS
 10
125.545376
 20
357.407115
 11
125.545376
 21
317.955466
  0
LINE
  8
2
 62
5
  6
CONTINUOUS
 10
83.545396
 20
355.740449
 11
87.409099
 21
356.775725
  0
LINE
  8
2
 62
5
  6
CONTINUOUS
 10
83.545396
 20
355.740449
 11
87.409099
 21
354.705173
  0
LINE
  8
2
 62
5
  6
CONTINUOUS
 10
125.545376
 20
355.740449
 11
121.681672
 21
354.705173
  0
LINE
  8
2
 62
5
  6
CONTINUOUS
 10
125.545376
 20
355.740449
 11
121.681672
 21
356.775725
  0
TEXT
  8
2
 62
5
  6
CONTINUOUS
 10
99.712050
 20
355.740449
 40
6.000000
 41
1.000000
  1
□C
  7
KANJI
 50
0.000000
 51
0.000000
  0
LINE
  8
2
 62
5
  6
CONTINUOUS
 10
69.545402
 20
91.920473
 11
139.545370
 21
91.920473
  0
LINE
  8
2
 62
5
  6
CONTINUOUS
 10
69.545402
 20
90.253807
 11
69.545402
 21
212.876193
  0
LINE
  8
2
 62
5
  6
CONTINUOUS
 10
139.545370
 20
90.253807
 11
139.545370
 21
212.876193
  0
LINE
  8
2
 62
5
  6
CONTINUOUS
 10
69.545402
 20
91.920473
 11
73.409105
 21
92.955749
  0
LINE
  8
2
 62
5
  6
CONTINUOUS
 10
69.545402
 20
91.920473
 11
73.409105
 21
90.885196
  0
LINE
  8
2
 62
5
  6
CONTINUOUS
 10
139.545370
 20
91.920473
 11
135.681666
 21
90.885196
  0
LINE
  8
2
 62
5
  6
CONTINUOUS
 10
139.545370
 20
91.920473
 11
135.681666
 21
92.955749
  0
TEXT
  8
2
 62
5
  6
CONTINUOUS
 10
103.045386
 20
91.920473
 40
6.000000
 41
0.500000
  1
L
  7
KANJI
 50
0.000000
 51
0.000000
  0
LINE
  8
2
 62
5
  6
CONTINUOUS
 10
334.989216
 20
234.636785
 11
359.774239
 21
259.421807
  0
LINE
  8
2
 62
5
  6
CONTINUOUS
 10
359.774239
 20
259.421807
 11
376.017754
 21
259.421807
  0
TEXT
  8
2
 62
5
  6
CONTINUOUS
 10
367.017754
 20
259.421807
 40
6.000000
 41
0.500000
  1
2-A
  7
KANJI
 50
0.000000
 51
0.000000
  0
LINE
  8
2
 62
5
  6
CONTINUOUS
 10
334.989216
 20
234.636785
 11
336.989216
 21
238.100886
  0
LINE
  8
2
 62
5
  6
CONTINUOUS
 10
334.989216
 20
234.636785
 11
338.453318
 21
236.636785
  0
LINE
  8
2
 62
5
  6
CONTINUOUS
 10
99.295387
 20
187.118918
 11
82.815154
 21
158.574316
  0
LINE
  8
2
 62
5
  6
CONTINUOUS
 10
82.815154
 20
158.574316
 11
69.574322
 21
158.574316
  0
TEXT
  8
2
 62
5
  6
CONTINUOUS
 10
69.574322
 20
158.574316
 40
6.000000
 41
0.500000
  1
 A
  7
KANJI
 50
0.000000
 51
0.000000
  0
LINE
  8
2
 62
5
  6
CONTINUOUS
 10
99.295387
 20
187.118918
 11
98.260111
 21
183.255215
  0
LINE
  8
2
 62
5
  6
CONTINUOUS
 10
99.295387
 20
187.118918
 11
96.466960
 21
184.290491
  0
LINE
  8
2
 62
5
  6
CONTINUOUS
 10
221.595680
 20
227.202169
 11
187.148329
 21
227.202169
  0
LINE
  8
2
 62
5
  6
CONTINUOUS
 10
221.595680
 20
227.202169
 11
217.731977
 21
226.166892
  0
LINE
  8
2
 62
5
  6
CONTINUOUS
 10
221.595680
 20
227.202169
 11
217.731977
 21
228.237445
  0
LINE
  8
2
 62
5
  6
CONTINUOUS
 10
221.303729
 20
196.772183
 11
266.885659
 21
196.772183
  0
LINE
  8
2
 62
5
  6
CONTINUOUS
 10
221.303729
 20
196.772183
 11
225.167432
 21
197.807459
  0
LINE
  8
2
 62
5
  6
CONTINUOUS
 10
221.303729
 20
196.772183
 11
225.167432
 21
195.736907
  0
LINE
  8
2
 62
5
  6
CONTINUOUS
 10
156.212030
 20
213.709526
 11
156.212030
 21
240.709516
  0
LINE
  8
2
 62
5
  6
CONTINUOUS
 10
157.878696
 20
213.709526
 11
140.378703
 21
213.709526
  0
LINE
  8
2
 62
5
  6
CONTINUOUS
 10
157.878696
 20
240.709516
 11
140.378703
 21
240.709516
  0
LINE
  8
2
 62
5
  6
CONTINUOUS
 10
156.212030
 20
213.709526
 11
155.176754
 21
217.573230
  0
LINE
  8
2
 62
5
  6
CONTINUOUS
 10
156.212030
 20
213.709526
 11
157.247306
 21
217.573230
  0
LINE
  8
2
 62
5
  6
CONTINUOUS
 10
156.212030
 20
240.709516
 11
157.247306
 21
236.845812
  0
LINE
  8
2
 62
5
  6
CONTINUOUS
 10
156.212030
 20
240.709516
 11
155.176754
 21
236.845812
  0
TEXT
  8
2
 62
5
  6
CONTINUOUS
 10
153.049219
 20
212.535642
 40
5.000000
 41
1.000000
  1
二面幅Ｄ六角
  7
KANJI
 50
90.000000
 51
0.000000
  0
LINE
  8
2
 62
5
  6
CONTINUOUS
 10
280.757632
 20
183.272184
 11
280.757632
 21
210.272173
  0
LINE
  8
2
 62
5
  6
CONTINUOUS
 10
279.090966
 20
183.272184
 11
291.590961
 21
183.272184
  0
LINE
  8
2
 62
5
  6
CONTINUOUS
 10
279.090966
 20
210.272173
 11
291.590961
 21
210.272173
  0
LINE
  8
2
 62
5
  6
CONTINUOUS
 10
280.757632
 20
183.272184
 11
279.722356
 21
187.135888
  0
LINE
  8
2
 62
5
  6
CONTINUOUS
 10
280.757632
 20
183.272184
 11
281.792908
 21
187.135888
  0
LINE
  8
2
 62
5
  6
CONTINUOUS
 10
280.757632
 20
210.272173
 11
281.792908
 21
206.408470
  0
LINE
  8
2
 62
5
  6
CONTINUOUS
 10
280.757632
 20
210.272173
 11
279.722356
 21
206.408470
  0
TEXT
  8
2
 62
5
  6
CONTINUOUS
 10
276.564300
 20
182.568397
 40
5.000000
 41
1.000000
  1
二面幅Ｄ六角
  7
KANJI
 50
90.000000
 51
0.000000
  0
LINE
  8
1
 62
7
  6
CONTINUOUS
 10
342.838540
 20
16.621186
 11
342.838540
 21
63.871183
  0
LINE
  8
1
 62
7
  6
CONTINUOUS
 10
327.838540
 20
63.871183
 11
327.838540
 21
16.621186
  0
LINE
  8
1
 62
7
  6
CONTINUOUS
 10
182.207000
 20
43.621184
 11
357.838539
 21
43.621184
  0
LINE
  8
1
 62
7
  6
CONTINUOUS
 10
182.207000
 20
25.621185
 11
357.838539
 21
25.621185
  0
LINE
  8
1
 62
7
  6
CONTINUOUS
 10
297.838539
 20
63.871183
 11
297.838539
 21
16.621186
  0
LINE
  8
1
 62
7
  6
CONTINUOUS
 10
312.838540
 20
16.621186
 11
312.838540
 21
63.871183
  0
LINE
  8
1
 62
7
  6
CONTINUOUS
 10
237.838540
 20
16.621186
 11
237.838540
 21
63.871183
  0
LINE
  8
1
 62
7
  6
CONTINUOUS
 10
252.838539
 20
63.871183
 11
252.838539
 21
16.621186
  0
LINE
  8
1
 62
7
  6
CONTINUOUS
 10
267.838541
 20
16.621186
 11
267.838541
 21
63.871183
  0
LINE
  8
1
 62
7
  6
CONTINUOUS
 10
282.838540
 20
63.871183
 11
282.838540
 21
16.621186
  0
LINE
  8
1
 62
7
  6
CONTINUOUS
 10
210.224514
 20
63.871183
 11
210.224514
 21
16.621186
  0
LINE
  8
1
 62
7
  6
CONTINUOUS
 10
182.207000
 20
34.621185
 11
357.838539
 21
34.621185
  0
LINE
  8
1
 62
7
  6
CONTINUOUS
 10
357.838539
 20
63.871183
 11
357.838539
 21
16.621186
  0
TEXT
  8
1
 62
7
  6
CONTINUOUS
 10
348.813236
 20
54.871183
 40
6.000000
 41
0.500000
  1
I
  7
KANJI
 50
0.000000
 51
0.000000
  0
TEXT
  8
1
 62
7
  6
CONTINUOUS
 10
303.311007
 20
54.976183
 40
6.000000
 41
0.500000
  1
L
  7
KANJI
 50
0.000000
 51
0.000000
  0
TEXT
  8
1
 62
7
  6
CONTINUOUS
 10
243.193490
 20
54.886183
 40
6.000000
 41
0.500000
  1
B
  7
KANJI
 50
0.000000
 51
0.000000
  0
TEXT
  8
1
 62
7
  6
CONTINUOUS
 10
258.322533
 20
54.841183
 40
6.000000
 41
0.500000
  1
C
  7
KANJI
 50
0.000000
 51
0.000000
  0
TEXT
  8
1
 62
7
  6
CONTINUOUS
 10
273.788583
 20
54.916184
 40
6.000000
 41
0.500000
  1
D
  7
KANJI
 50
0.000000
 51
0.000000
  0
TEXT
  8
1
 62
7
  6
CONTINUOUS
 10
288.483049
 20
54.587693
 40
6.000000
 41
0.500000
  1
P
  7
KANJI
 50
0.000000
 51
0.000000
  0
TEXT
  8
1
 62
7
  6
CONTINUOUS
 10
213.188438
 20
27.121185
 40
6.000000
 41
0.500000
  1
Rc1
  7
KANJI
 50
0.000000
 51
0.000000
  0
TEXT
  8
1
 62
7
  6
CONTINUOUS
 10
213.195079
 20
18.121186
 40
6.000000
 41
0.500000
  1
Rc1 1/4
  7
KANJI
 50
0.000000
 51
0.000000
  0
TEXT
  8
1
 62
7
  6
CONTINUOUS
 10
238.984254
 20
27.121185
 40
6.000000
 41
0.500000
  1
 46
  7
KANJI
 50
0.000000
 51
0.000000
  0
TEXT
  8
1
 62
7
  6
CONTINUOUS
 10
238.984254
 20
18.121186
 40
6.000000
 41
0.500000
  1
 46
  7
KANJI
 50
0.000000
 51
0.000000
  0
TEXT
  8
1
 62
7
  6
CONTINUOUS
 10
254.609189
 20
18.121186
 40
6.000000
 41
0.500000
  1
 59
  7
KANJI
 50
0.000000
 51
0.000000
  0
TEXT
  8
1
 62
7
  6
CONTINUOUS
 10
269.192567
 20
27.121185
 40
6.000000
 41
0.500000
  1
 40
  7
KANJI
 50
0.000000
 51
0.000000
  0
TEXT
  8
1
 62
7
  6
CONTINUOUS
 10
269.192567
 20
18.121186
 40
6.000000
 41
0.500000
  1
 50
  7
KANJI
 50
0.000000
 51
0.000000
  0
TEXT
  8
1
 62
7
  6
CONTINUOUS
 10
300.650747
 20
27.121185
 40
6.000000
 41
0.500000
  1
 90
  7
KANJI
 50
0.000000
 51
0.000000
  0
TEXT
  8
1
 62
7
  6
CONTINUOUS
 10
300.650747
 20
18.121186
 40
6.000000
 41
0.500000
  1
100
  7
KANJI
 50
0.000000
 51
0.000000
  0
TEXT
  8
1
 62
7
  6
CONTINUOUS
 10
254.609189
 20
27.121185
 40
6.000000
 41
0.500000
  1
 59
  7
KANJI
 50
0.000000
 51
0.000000
  0
TEXT
  8
1
 62
7
  6
CONTINUOUS
 10
284.192566
 20
45.121184
 40
6.000000
 41
0.500000
  1
 31
  7
KANJI
 50
0.000000
 51
0.000000
  0
TEXT
  8
1
 62
7
  6
CONTINUOUS
 10
284.192566
 20
36.121185
 40
6.000000
 41
0.500000
  1
 39
  7
KANJI
 50
0.000000
 51
0.000000
  0
TEXT
  8
1
 62
7
  6
CONTINUOUS
 10
284.192566
 20
27.121185
 40
6.000000
 41
0.500000
  1
 44
  7
KANJI
 50
0.000000
 51
0.000000
  0
TEXT
  8
1
 62
7
  6
CONTINUOUS
 10
284.192566
 20
18.121186
 40
6.000000
 41
0.500000
  1
 54
  7
KANJI
 50
0.000000
 51
0.000000
  0
TEXT
  8
1
 62
7
  6
CONTINUOUS
 10
318.577361
 20
55.006184
 40
6.000000
 41
0.500000
  1
H
  7
KANJI
 50
0.000000
 51
0.000000
  0
TEXT
  8
1
 62
7
  6
CONTINUOUS
 10
333.723603
 20
54.961184
 40
6.000000
 41
0.500000
  1
h
  7
KANJI
 50
0.000000
 51
0.000000
  0
TEXT
  8
1
 62
7
  6
CONTINUOUS
 10
213.188438
 20
45.121184
 40
6.000000
 41
0.500000
  1
Rc  1/2
  7
KANJI
 50
0.000000
 51
0.000000
  0
TEXT
  8
1
 62
7
  6
CONTINUOUS
 10
213.195079
 20
36.121185
 40
6.000000
 41
0.500000
  1
Rc  3/4
  7
KANJI
 50
0.000000
 51
0.000000
  0
TEXT
  8
1
 62
7
  6
CONTINUOUS
 10
315.650749
 20
45.121184
 40
6.000000
 41
0.500000
  1
100
  7
KANJI
 50
0.000000
 51
0.000000
  0
TEXT
  8
1
 62
7
  6
CONTINUOUS
 10
315.650749
 20
36.121185
 40
6.000000
 41
0.500000
  1
104
  7
KANJI
 50
0.000000
 51
0.000000
  0
TEXT
  8
1
 62
7
  6
CONTINUOUS
 10
315.650749
 20
27.121185
 40
6.000000
 41
0.500000
  1
116
  7
KANJI
 50
0.000000
 51
0.000000
  0
TEXT
  8
1
 62
7
  6
CONTINUOUS
 10
315.650749
 20
18.121186
 40
6.000000
 41
0.500000
  1
121
  7
KANJI
 50
0.000000
 51
0.000000
  0
TEXT
  8
1
 62
7
  6
CONTINUOUS
 10
238.984254
 20
45.121184
 40
6.000000
 41
0.500000
  1
 37
  7
KANJI
 50
0.000000
 51
0.000000
  0
TEXT
  8
1
 62
7
  6
CONTINUOUS
 10
238.984254
 20
36.121185
 40
6.000000
 41
0.500000
  1
 37
  7
KANJI
 50
0.000000
 51
0.000000
  0
TEXT
  8
1
 62
7
  6
CONTINUOUS
 10
254.609189
 20
45.121184
 40
6.000000
 41
0.500000
  1
 42
  7
KANJI
 50
0.000000
 51
0.000000
  0
TEXT
  8
1
 62
7
  6
CONTINUOUS
 10
254.609189
 20
36.121185
 40
6.000000
 41
0.500000
  1
 42
  7
KANJI
 50
0.000000
 51
0.000000
  0
TEXT
  8
1
 62
7
  6
CONTINUOUS
 10
269.192567
 20
45.121184
 40
6.000000
 41
0.500000
  1
 27
  7
KANJI
 50
0.000000
 51
0.000000
  0
TEXT
  8
1
 62
7
  6
CONTINUOUS
 10
269.192567
 20
36.121185
 40
6.000000
 41
0.500000
  1
 32
  7
KANJI
 50
0.000000
 51
0.000000
  0
TEXT
  8
1
 62
7
  6
CONTINUOUS
 10
300.650747
 20
45.121184
 40
6.000000
 41
0.500000
  1
 70
  7
KANJI
 50
0.000000
 51
0.000000
  0
TEXT
  8
1
 62
7
  6
CONTINUOUS
 10
300.650747
 20
36.121185
 40
6.000000
 41
0.500000
  1
 80
  7
KANJI
 50
0.000000
 51
0.000000
  0
TEXT
  8
1
 62
7
  6
CONTINUOUS
 10
330.650749
 20
45.121184
 40
6.000000
 41
0.500000
  1
114
  7
KANJI
 50
0.000000
 51
0.000000
  0
TEXT
  8
1
 62
7
  6
CONTINUOUS
 10
330.650749
 20
36.121185
 40
6.000000
 41
0.500000
  1
126
  7
KANJI
 50
0.000000
 51
0.000000
  0
TEXT
  8
1
 62
7
  6
CONTINUOUS
 10
330.650749
 20
27.121185
 40
6.000000
 41
0.500000
  1
141
  7
KANJI
 50
0.000000
 51
0.000000
  0
TEXT
  8
1
 62
7
  6
CONTINUOUS
 10
330.650749
 20
18.121186
 40
6.000000
 41
0.500000
  1
156
  7
KANJI
 50
0.000000
 51
0.000000
  0
TEXT
  8
1
 62
7
  6
CONTINUOUS
 10
345.650749
 20
45.121184
 40
6.000000
 41
0.500000
  1
214
  7
KANJI
 50
0.000000
 51
0.000000
  0
TEXT
  8
1
 62
7
  6
CONTINUOUS
 10
345.650749
 20
36.121185
 40
6.000000
 41
0.500000
  1
230
  7
KANJI
 50
0.000000
 51
0.000000
  0
TEXT
  8
1
 62
7
  6
CONTINUOUS
 10
345.650749
 20
27.121185
 40
6.000000
 41
0.500000
  1
257
  7
KANJI
 50
0.000000
 51
0.000000
  0
TEXT
  8
1
 62
7
  6
CONTINUOUS
 10
345.650749
 20
18.121186
 40
6.000000
 41
0.500000
  1
277
  7
KANJI
 50
0.000000
 51
0.000000
  0
LINE
  8
1
 62
7
  6
CONTINUOUS
 10
154.387834
 20
63.994422
 11
154.387834
 21
16.744425
  0
LINE
  8
1
 62
7
  6
CONTINUOUS
 10
357.838539
 20
52.621184
 11
154.387612
 21
52.621184
  0
LINE
  8
1
 62
7
  6
CONTINUOUS
 10
154.387612
 20
52.621184
 11
357.838539
 21
52.621184
  0
LINE
  8
1
 62
7
  6
CONTINUOUS
 10
154.387797
 20
63.871183
 11
357.838539
 21
63.871183
  0
LINE
  8
1
 62
7
  6
CONTINUOUS
 10
154.387797
 20
16.621186
 11
357.838539
 21
16.621186
  0
LINE
  8
11
 62
7
  6
CONTINUOUS
 10
154.387834
 20
58.221537
 11
210.224514
 21
58.221537
  0
LINE
  8
1
 62
7
  6
CONTINUOUS
 10
182.207000
 20
58.221537
 11
182.207000
 21
16.621186
  0
TEXT
  8
1
 62
7
  6
CONTINUOUS
 10
222.643077
 20
54.839692
 40
6.000000
 41
0.500000
  1
A
  7
KANJI
 50
0.000000
 51
0.000000
  0
TEXT
  8
11
 62
7
  6
CONTINUOUS
 10
163.823354
 20
57.593896
 40
6.000000
 41
1.000000
  1
カタログ番号
  7
KANJI
 50
0.000000
 51
0.000000
  0
TEXT
  8
11
 62
7
  6
CONTINUOUS
 10
163.083917
 20
52.417840
 40
6.000000
 41
1.000000
  1
形式
  7
KANJI
 50
0.000000
 51
0.000000
  0
TEXT
  8
11
 62
7
  6
CONTINUOUS
 10
189.950114
 20
52.417840
 40
6.000000
 41
1.000000
  1
番号
  7
KANJI
 50
0.000000
 51
0.000000
  0
TEXT
  8
11
 62
7
  6
CONTINUOUS
 10
161.851523
 20
31.467135
 40
6.000000
 41
0.500000
  1
SWR-
  7
KANJI
 50
0.000000
 51
0.000000
  0
TEXT
  8
1
 62
7
  6
CONTINUOUS
 10
185.764549
 20
45.121184
 40
6.000000
 41
0.500000
  1
1504GLW
  7
KANJI
 50
0.365798
 51
0.000000
  0
TEXT
  8
1
 62
7
  6
CONTINUOUS
 10
185.928868
 20
36.285504
 40
6.000000
 41
0.500000
  1
2006GLW
  7
KANJI
 50
0.000000
 51
0.000000
  0
TEXT
  8
1
 62
7
  6
CONTINUOUS
 10
186.093187
 20
27.121185
 40
6.000000
 41
0.500000
  1
2510GLW
  7
KANJI
 50
-0.348352
 51
0.000000
  0
TEXT
  8
1
 62
7
  6
CONTINUOUS
 10
186.257506
 20
18.285505
 40
6.000000
 41
0.500000
  1
3212GLW
  7
KANJI
 50
0.379650
 51
0.000000
  0
TEXT
  8
11
 62
7
  6
CONTINUOUS
 10
125.257483
 20
28.732981
 40
12.000000
 41
0.500000
  1
1/2
  7
KANJI
 50
-0.722427
 51
0.000000
  0
ENDSEC
  0
EOF
