  0
SECTION
  2
HEADER
  9
$ACADVER
  1
AC1003
  9
$INSBASE
 10
0.000000
 20
0.000000
  9
$EXTMIN
 10
0.000000
 20
0.000000
  9
$EXTMAX
 10
840.000000
 20
594.000000
  9
$LIMMIN
 10
0.000000
 20
0.000000
  9
$LIMMAX
 10
840.000000
 20
594.000000
  9
$VIEWCTR
 10
420.000000
 20
297.000000
  9
$VIEWSIZE
 40
594.000000
  9
$PEXTMIN
 10
0.000000
 20
0.000000
 30
0.000000
  9
$PEXTMAX
 10
420.000000
 20
297.000000
 30
0.000000
  9
$SNAPMODE
 70
     0
  9
$SNAPUNIT
 10
1.000000
 20
1.000000
  9
$SNAPBASE
 10
0.000000
 20
0.000000
  9
$SNAPANG
 50
0.000000
  9
$SNAPISOPAIR
 70
     0
  9
$SNAPSTYLE
 70
     0
  9
$GRIDMODE
 70
     0
  9
$GRIDUNIT
 10
0.000000
 20
0.000000
  9
$ORTHOMODE
 70
     0
  9
$REGENMODE
 70
     1
  9
$FILLMODE
 70
     1
  9
$QTEXTMODE
 70
     0
  9
$DRAGMODE
 70
     2
  9
$LTSCALE
 40
0.500000
  9
$OSMODE
 70
     0
  9
$ATTMODE
 70
     1
  9
$TEXTSIZE
 40
12.000000
  9
$TRACEWID
 40
0.050000
  9
$TEXTSTYLE
  7
STANDARD
  9
$CLAYER
  8
0
  9
$CELTYPE
  6
BYLAYER
  9
$CECOLOR
 62
   256
  9
$DIMSCALE
 40
1.000000
  9
$DIMASZ
 40
1.000000
  9
$DIMEXO
 40
0.000000
  9
$DIMDLI
 40
0.500000
  9
$DIMRND
 40
0.000000
  9
$DIMDLE
 40
0.000000
  9
$DIMEXE
 40
0.000000
  9
$DIMTP
 40
0.000000
  9
$DIMTM
 40
0.000000
  9
$DIMTXT
 40
4.000000
  9
$DIMCEN
 40
0.000000
  9
$DIMTSZ
 40
0.000000
  9
$DIMTOL
 70
     0
  9
$DIMLIM
 70
     0
  9
$DIMTIH
 70
     1
  9
$DIMTOH
 70
     1
  9
$DIMSE1
 70
     0
  9
$DIMSE2
 70
     0
  9
$DIMTAD
 70
     0
  9
$DIMZIN
 70
     0
  9
$DIMBLK
  1

  9
$DIMASO
 70
     0
  9
$DIMSHO
 70
     0
  9
$DIMPOST
  1

  9
$DIMAPOST
  1

  9
$DIMALT
 70
     0
  9
$DIMALTD
 70
     0
  9
$DIMALTF
 40
25.400000
  9
$DIMLFAC
 40
1.000000
  9
$DIMTOFL
 70
     0
  9
$DIMTVP
 40
0.000000
  9
$DIMTIX
 70
     0
  9
$DIMSOXD
 70
     0
  9
$DIMSAH
 70
     0
  9
$DIMBLKL
  1

  9
$DIMBLKR
  1

  9
$LUNITS
 70
     2
  9
$LUPREC
 70
     2
  9
$AXISMODE
 70
     0
  9
$AXISUNIT
 10
1.000000
 20
1.000000
  9
$SKETCHINC
 40
0.000000
  9
$FILLETRAD
 40
0.000000
  9
$AUNITS
 70
     1
  9
$AUPREC
 70
     2
  9
$MENU
  1
ACAD
  9
$ELEVATION
 40
0.000000
  9
$THICKNESS
 40
0.000000
  9
$VIEWDIR
 10
0.000000
 20
0.000000
 30
1.000000
  9
$LIMCHECK
 70
     1
  9
$BLIPMODE
 70
     1
  9
$CHAMFERA
 40
0.000000
  9
$CHAMFERB
 40
0.000000
  9
$FASTZOOM
 70
     1
  9
$SKPOLY
 70
     0
  9
$TDCREATE
 40
0.000000
  9
$TDUPDATE
 40
0.000000
  9
$TDINDWG
 40
0.000000
  9
$TDUSRTIMER
 40
0.000000
  9
$USRTIMER
 70
     1
  9
$ANGBASE
 50
0.000000
  9
$ANGDIR
 70
     0
  9
$PDMODE
 70
     0
  9
$PDSIZE
 40
0.000000
  9
$PLINEWID
 40
0.000000
  9
$COORDS
 70
     2
  9
$USERI1
 70
     0
  9
$USERI2
 70
     0
  9
$USERI3
 70
     0
  9
$USERI4
 70
     0
  9
$USERI5
 70
     0
  9
$USERR1
 40
0.000000
  9
$USERR2
 40
0.000000
  9
$USERR3
 40
0.000000
  9
$USERR4
 40
0.000000
  9
$USERR5
 40
0.000000
  0
ENDSEC
  0
SECTION
  2
TABLES
  0
TABLE
  2
LTYPE
 70
     5
  0
LTYPE
  2
CONTINUOUS
 70
    64
  3
Solid line
 72
    65
 73
     0
 40
0.0
  0
LTYPE
  2
HIDDEN
 70
    64
  3
------------------------
 72
    65
 73
     2
 40
12.6
 49
8.4
 49
-4.2
  0
LTYPE
  2
DOT
 70
    64
  3
････････････････････････
 72
    65
 73
     2
 40
8.0
 49
6.0
 49
-2.0
  0
LTYPE
  2
DASHDOT
 70
    64
  3
--･--･--･--･--･--･--･--
 72
    65
 73
     4
 40
50.5
 49
30.0
 49
-9.0
 49
2.5
 49
-9.0
  0
LTYPE
  2
DIVIDE
 70
    64
  3
--･･--･･--･･--･･--･･--
 72
    65
 73
     6
 40
58.0
 49
30.0
 49
-9.0
 49
2.5
 49
-5.0
 49
2.5
 49
-9.0
  0
LTYPE
  2
ACAD_ISO06W100
 70
    64
  3
____ ... ____ ... ____
 72
    65
 73
     8
 40
37.5
 49
24.0
 49
-3.0
 49
0.5
 49
-3.0
 49
0.5
 49
-3.0
 49
0.5
 49
-3.0
  0
LTYPE
  2
ACAD_ISO14W100
 70
    64
  3
__ . . . __ . . . __ . . . 
 72
    65
 73
     8
 40
25.5
 49
12.0
 49
-3.0
 49
0.5
 49
-3.0
 49
0.5
 49
-3.0
 49
0.5
 49
-3.0
  0
ENDTAB
  0
TABLE
  2
LAYER
 70
3
  0
LAYER
  2
1
 70
64
 62
7
  6
CONTINUOUS
  0
LAYER
  2
2
 70
64
 62
5
  6
CONTINUOUS
  0
LAYER
  2
11
 70
64
 62
7
  6
CONTINUOUS
  0
ENDTAB
  0
TABLE
  2
STYLE
 70
     2
  0
STYLE
  2
STANDARD
 70
    64
 40
0.0
 41
1.0
 50
0.0
 71
     0
 42
0.2
  3
TXT
  4

  0
STYLE
  2
KANJI
 70
    64
 40
0.0
 41
1.0
 50
0.0
 71
     0
 42
0.2
  3
TXT
  4
BIGFONT
  0
ENDTAB
  0
TABLE
  2
VIEW
 70
     0
  0
ENDTAB
  0
ENDSEC
  0
SECTION
  2
BLOCKS
  0
ENDSEC
  0
SECTION
  2
ENTITIES
  0
TEXT
  8
1
 62
7
  6
CONTINUOUS
 10
317.737882
 20
52.843162
 40
6.000000
 41
0.500000
  1
F
  7
KANJI
 50
0.000000
 51
0.000000
  0
TEXT
  8
1
 62
7
  6
CONTINUOUS
 10
190.137711
 20
52.934652
 40
6.000000
 41
0.500000
  1
A
  7
KANJI
 50
0.000000
 51
0.000000
  0
TEXT
  8
1
 62
7
  6
CONTINUOUS
 10
212.940321
 20
52.784653
 40
6.000000
 41
0.500000
  1
B
  7
KANJI
 50
0.000000
 51
0.000000
  0
TEXT
  8
1
 62
7
  6
CONTINUOUS
 10
228.069364
 20
52.739653
 40
6.000000
 41
0.500000
  1
C
  7
KANJI
 50
0.000000
 51
0.000000
  0
TEXT
  8
1
 62
7
  6
CONTINUOUS
 10
243.535415
 20
52.814654
 40
6.000000
 41
0.500000
  1
D
  7
KANJI
 50
0.000000
 51
0.000000
  0
TEXT
  8
1
 62
7
  6
CONTINUOUS
 10
258.057839
 20
52.874653
 40
6.000000
 41
0.500000
  1
L
  7
KANJI
 50
0.000000
 51
0.000000
  0
TEXT
  8
1
 62
7
  6
CONTINUOUS
 10
272.690705
 20
52.904654
 40
6.000000
 41
0.500000
  1
H
  7
KANJI
 50
0.000000
 51
0.000000
  0
TEXT
  8
1
 62
7
  6
CONTINUOUS
 10
287.619932
 20
52.859654
 40
6.000000
 41
0.500000
  1
h
  7
KANJI
 50
0.000000
 51
0.000000
  0
TEXT
  8
1
 62
7
  6
CONTINUOUS
 10
302.414352
 20
52.769654
 40
6.000000
 41
0.500000
  1
I
  7
KANJI
 50
0.000000
 51
0.000000
  0
TEXT
  8
1
 62
7
  6
CONTINUOUS
 10
181.403173
 20
25.019653
 40
6.000000
 41
0.500000
  1
Rc1
  7
KANJI
 50
0.000000
 51
0.000000
  0
TEXT
  8
1
 62
7
  6
CONTINUOUS
 10
181.403173
 20
16.019654
 40
6.000000
 41
0.500000
  1
Rc1 1/4
  7
KANJI
 50
0.000000
 51
0.000000
  0
TEXT
  8
1
 62
7
  6
CONTINUOUS
 10
181.403173
 20
43.019654
 40
6.000000
 41
0.500000
  1
Rc  1/2
  7
KANJI
 50
0.000000
 51
0.000000
  0
TEXT
  8
1
 62
7
  6
CONTINUOUS
 10
254.827202
 20
43.019654
 40
6.000000
 41
0.500000
  1
 70
  7
KANJI
 50
0.000000
 51
0.000000
  0
TEXT
  8
1
 62
7
  6
CONTINUOUS
 10
269.827203
 20
43.019654
 40
6.000000
 41
0.500000
  1
100
  7
KANJI
 50
0.000000
 51
0.000000
  0
TEXT
  8
1
 62
7
  6
CONTINUOUS
 10
269.827203
 20
34.019655
 40
6.000000
 41
0.500000
  1
104
  7
KANJI
 50
0.000000
 51
0.000000
  0
TEXT
  8
1
 62
7
  6
CONTINUOUS
 10
269.827203
 20
25.019653
 40
6.000000
 41
0.500000
  1
116
  7
KANJI
 50
0.000000
 51
0.000000
  0
TEXT
  8
1
 62
7
  6
CONTINUOUS
 10
254.827202
 20
16.019654
 40
6.000000
 41
0.500000
  1
100
  7
KANJI
 50
0.000000
 51
0.000000
  0
TEXT
  8
1
 62
7
  6
CONTINUOUS
 10
269.827203
 20
16.019654
 40
6.000000
 41
0.500000
  1
121
  7
KANJI
 50
0.000000
 51
0.000000
  0
TEXT
  8
1
 62
7
  6
CONTINUOUS
 10
181.403173
 20
34.019655
 40
6.000000
 41
0.500000
  1
Rc  3/4 
  7
KANJI
 50
0.000000
 51
0.000000
  0
TEXT
  8
1
 62
7
  6
CONTINUOUS
 10
208.366448
 20
43.019654
 40
6.000000
 41
0.500000
  1
 37
  7
KANJI
 50
0.000000
 51
0.000000
  0
TEXT
  8
1
 62
7
  6
CONTINUOUS
 10
208.366448
 20
34.019655
 40
6.000000
 41
0.500000
  1
 37
  7
KANJI
 50
0.000000
 51
0.000000
  0
TEXT
  8
1
 62
7
  6
CONTINUOUS
 10
208.366448
 20
25.019653
 40
6.000000
 41
0.500000
  1
 46
  7
KANJI
 50
0.000000
 51
0.000000
  0
TEXT
  8
1
 62
7
  6
CONTINUOUS
 10
208.366448
 20
16.019654
 40
6.000000
 41
0.500000
  1
 46
  7
KANJI
 50
0.000000
 51
0.000000
  0
TEXT
  8
1
 62
7
  6
CONTINUOUS
 10
223.171679
 20
43.019654
 40
6.000000
 41
0.500000
  1
 42
  7
KANJI
 50
0.000000
 51
0.000000
  0
TEXT
  8
1
 62
7
  6
CONTINUOUS
 10
223.171679
 20
34.019655
 40
6.000000
 41
0.500000
  1
 42
  7
KANJI
 50
0.000000
 51
0.000000
  0
TEXT
  8
1
 62
7
  6
CONTINUOUS
 10
223.171679
 20
25.019653
 40
6.000000
 41
0.500000
  1
 59
  7
KANJI
 50
0.000000
 51
0.000000
  0
TEXT
  8
1
 62
7
  6
CONTINUOUS
 10
223.171679
 20
16.019654
 40
6.000000
 41
0.500000
  1
 59
  7
KANJI
 50
0.000000
 51
0.000000
  0
TEXT
  8
1
 62
7
  6
CONTINUOUS
 10
238.269065
 20
43.019654
 40
6.000000
 41
0.500000
  1
 27
  7
KANJI
 50
0.000000
 51
0.000000
  0
TEXT
  8
1
 62
7
  6
CONTINUOUS
 10
238.269065
 20
25.019653
 40
6.000000
 41
0.500000
  1
 40
  7
KANJI
 50
0.000000
 51
0.000000
  0
TEXT
  8
1
 62
7
  6
CONTINUOUS
 10
238.269065
 20
16.019654
 40
6.000000
 41
0.500000
  1
 50
  7
KANJI
 50
0.000000
 51
0.000000
  0
TEXT
  8
1
 62
7
  6
CONTINUOUS
 10
284.827202
 20
43.019654
 40
6.000000
 41
0.500000
  1
114
  7
KANJI
 50
0.000000
 51
0.000000
  0
TEXT
  8
1
 62
7
  6
CONTINUOUS
 10
284.827202
 20
34.019655
 40
6.000000
 41
0.500000
  1
126
  7
KANJI
 50
0.000000
 51
0.000000
  0
TEXT
  8
1
 62
7
  6
CONTINUOUS
 10
284.827202
 20
25.019653
 40
6.000000
 41
0.500000
  1
141
  7
KANJI
 50
0.000000
 51
0.000000
  0
TEXT
  8
1
 62
7
  6
CONTINUOUS
 10
284.827202
 20
16.019654
 40
6.000000
 41
0.500000
  1
156
  7
KANJI
 50
0.000000
 51
0.000000
  0
TEXT
  8
1
 62
7
  6
CONTINUOUS
 10
299.827201
 20
43.019654
 40
6.000000
 41
0.500000
  1
214
  7
KANJI
 50
0.000000
 51
0.000000
  0
TEXT
  8
1
 62
7
  6
CONTINUOUS
 10
299.827201
 20
34.019655
 40
6.000000
 41
0.500000
  1
230
  7
KANJI
 50
0.000000
 51
0.000000
  0
TEXT
  8
1
 62
7
  6
CONTINUOUS
 10
299.827201
 20
25.019653
 40
6.000000
 41
0.500000
  1
257
  7
KANJI
 50
0.000000
 51
0.000000
  0
TEXT
  8
1
 62
7
  6
CONTINUOUS
 10
299.827201
 20
16.019654
 40
6.000000
 41
0.500000
  1
277
  7
KANJI
 50
0.000000
 51
0.000000
  0
TEXT
  8
1
 62
7
  6
CONTINUOUS
 10
314.827201
 20
43.019654
 40
6.000000
 41
0.500000
  1
150
  7
KANJI
 50
0.000000
 51
0.000000
  0
TEXT
  8
1
 62
7
  6
CONTINUOUS
 10
314.827201
 20
34.019655
 40
6.000000
 41
0.500000
  1
150
  7
KANJI
 50
0.000000
 51
0.000000
  0
TEXT
  8
1
 62
7
  6
CONTINUOUS
 10
314.827201
 20
25.019653
 40
6.000000
 41
0.500000
  1
320
  7
KANJI
 50
0.000000
 51
0.000000
  0
TEXT
  8
1
 62
7
  6
CONTINUOUS
 10
314.827201
 20
16.019654
 40
6.000000
 41
0.500000
  1
320
  7
KANJI
 50
0.000000
 51
0.000000
  0
TEXT
  8
1
 62
7
  6
CONTINUOUS
 10
254.827202
 20
34.019655
 40
6.000000
 41
0.500000
  1
 80
  7
KANJI
 50
0.000000
 51
0.000000
  0
TEXT
  8
1
 62
7
  6
CONTINUOUS
 10
254.827202
 20
25.019653
 40
6.000000
 41
0.500000
  1
 90
  7
KANJI
 50
0.000000
 51
0.000000
  0
TEXT
  8
1
 62
7
  6
CONTINUOUS
 10
238.269065
 20
34.019655
 40
6.000000
 41
0.500000
  1
 32
  7
KANJI
 50
0.000000
 51
0.000000
  0
LINE
  8
1
 62
7
  6
CONTINUOUS
 10
123.765864
 20
50.519654
 11
326.835369
 21
50.519654
  0
LINE
  8
1
 62
7
  6
CONTINUOUS
 10
123.765813
 20
14.519654
 11
326.835369
 21
14.519654
  0
LINE
  8
1
 62
7
  6
CONTINUOUS
 10
123.765880
 20
63.586483
 11
123.765880
 21
14.355334
  0
LINE
  8
1
 62
7
  6
CONTINUOUS
 10
123.765813
 20
63.584014
 11
326.835369
 21
63.584014
  0
LINE
  8
1
 62
7
  6
CONTINUOUS
 10
176.835371
 20
63.584158
 11
176.835371
 21
14.519654
  0
LINE
  8
1
 62
7
  6
CONTINUOUS
 10
206.835371
 20
14.519654
 11
206.835371
 21
63.585463
  0
LINE
  8
1
 62
7
  6
CONTINUOUS
 10
221.835370
 20
63.584107
 11
221.835370
 21
14.519654
  0
LINE
  8
1
 62
7
  6
CONTINUOUS
 10
236.835372
 20
14.519654
 11
236.835372
 21
63.584124
  0
LINE
  8
1
 62
7
  6
CONTINUOUS
 10
251.835371
 20
63.584765
 11
251.835371
 21
14.519654
  0
LINE
  8
1
 62
7
  6
CONTINUOUS
 10
266.835372
 20
14.519654
 11
266.835372
 21
63.584583
  0
LINE
  8
1
 62
7
  6
CONTINUOUS
 10
281.835371
 20
63.584158
 11
281.835371
 21
14.519654
  0
LINE
  8
1
 62
7
  6
CONTINUOUS
 10
296.835371
 20
14.519654
 11
296.835371
 21
63.584085
  0
LINE
  8
1
 62
7
  6
CONTINUOUS
 10
311.835370
 20
63.584026
 11
311.835370
 21
14.519654
  0
LINE
  8
1
 62
7
  6
CONTINUOUS
 10
326.835369
 20
63.584014
 11
326.835369
 21
14.519654
  0
TEXT
  8
11
 62
7
  6
CONTINUOUS
 10
131.735363
 20
57.084528
 40
6.000000
 41
1.000000
  1
カタログ番号
  7
KANJI
 50
0.000000
 51
0.000000
  0
LINE
  8
11
 62
7
  6
CONTINUOUS
 10
123.930199
 20
56.518286
 11
176.999690
 21
56.518286
  0
TEXT
  8
11
 62
7
  6
CONTINUOUS
 10
124.998274
 20
29.363357
 40
6.000000
 41
0.500000
  1
XWR-
  7
KANJI
 50
0.000000
 51
0.000000
  0
TEXT
  8
11
 62
7
  6
CONTINUOUS
 10
125.655551
 20
50.560540
 40
6.000000
 41
1.000000
  1
形式
  7
KANJI
 50
0.000000
 51
0.000000
  0
LINE
  8
1
 62
7
  6
CONTINUOUS
 10
139.426262
 20
41.519654
 11
326.835369
 21
41.519654
  0
LINE
  8
1
 62
7
  6
CONTINUOUS
 10
326.835369
 20
32.519653
 11
139.426077
 21
32.519653
  0
LINE
  8
1
 62
7
  6
CONTINUOUS
 10
139.425952
 20
23.519653
 11
326.835369
 21
23.519653
  0
LINE
  8
1
 62
7
  6
CONTINUOUS
 10
139.426275
 20
56.518331
 11
139.426275
 21
14.519654
  0
TEXT
  8
1
 62
7
  6
CONTINUOUS
 10
141.631368
 20
42.926931
 40
6.000000
 41
0.500000
  1
5004G,7504G
  7
KANJI
 50
0.184310
 51
0.000000
  0
TEXT
  8
1
 62
7
  6
CONTINUOUS
 10
141.631368
 20
34.255570
 40
6.000000
 41
0.500000
  1
5006G,7506G
  7
KANJI
 50
0.120403
 51
0.000000
  0
TEXT
  8
1
 62
7
  6
CONTINUOUS
 10
141.877847
 20
25.337728
 40
6.000000
 41
0.500000
  1
5010G,7510G
  7
KANJI
 50
-0.349509
 51
0.000000
  0
TEXT
  8
1
 62
7
  6
CONTINUOUS
 10
141.713528
 20
16.091250
 40
6.000000
 41
0.500000
  1
5012G,7512G
  7
KANJI
 50
-0.013473
 51
0.000000
  0
TEXT
  8
11
 62
7
  6
CONTINUOUS
 10
150.467758
 20
50.560540
 40
6.000000
 41
1.000000
  1
番号
  7
KANJI
 50
0.000000
 51
0.000000
  0
TEXT
  8
11
 62
7
  6
CONTINUOUS
 10
124.941203
 20
67.122303
 40
6.000000
 41
1.000000
  1
図はXWR-**04G
  7
KANJI
 50
-0.074525
 51
0.000000
  0
TEXT
  8
11
 62
7
  6
CONTINUOUS
 10
94.456873
 20
30.897722
 40
12.000000
 41
0.500000
  1
1/2
  7
KANJI
 50
0.242599
 51
0.000000
  0
LINE
  8
2
 62
5
  6
DASHDOT
 10
61.241799
 20
183.639108
 11
61.241799
 21
363.115698
  0
LINE
  8
2
 62
5
  6
DASHDOT
 10
21.241817
 20
257.865743
 11
101.241781
 21
257.865743
  0
LINE
  8
2
 62
5
  6
DASHDOT
 10
78.241793
 20
212.849093
 11
78.241793
 21
249.532414
  0
LINE
  8
2
 62
5
  6
DASHDOT
 10
44.241805
 20
212.849093
 11
44.241805
 21
249.532414
  0
LINE
  8
2
 62
5
  6
DASHDOT
 10
84.075124
 20
226.515758
 11
38.408475
 21
226.515758
  0
LINE
  8
2
 62
5
  6
DASHDOT
 10
61.241799
 20
174.064353
 11
61.241799
 21
116.588664
  0
LINE
  8
2
 62
5
  6
DASHDOT
 10
246.256531
 20
97.558792
 11
246.256531
 21
363.115698
  0
LINE
  8
2
 62
5
  6
DASHDOT
 10
263.256524
 20
249.559344
 11
263.256524
 21
212.849093
  0
LINE
  8
2
 62
5
  6
DASHDOT
 10
229.256537
 20
249.471013
 11
229.256537
 21
212.849093
  0
LINE
  8
2
 62
5
  6
DASHDOT
 10
263.256524
 20
271.559338
 11
263.256524
 21
266.136006
  0
LINE
  8
2
 62
5
  6
DASHDOT
 10
229.256537
 20
271.559338
 11
229.256537
 21
266.136006
  0
LINE
  8
2
 62
5
  6
DASHDOT
 10
223.423203
 20
257.865743
 11
270.123186
 21
257.865743
  0
LINE
  8
2
 62
5
  6
DASHDOT
 10
294.416508
 20
226.515760
 11
206.256549
 21
226.515760
  0
ARC
  8
2
 62
5
  6
DASHDOT
 10
249.589863
 20
97.558792
 40
3.333332
 50
-180.000000
 51
-90.000000
  0
ARC
  8
1
 62
7
  6
CONTINUOUS
 10
247.113669
 20
122.385636
 40
1.199999
 50
-135.584657
 51
-44.415343
  0
ARC
  8
1
 62
7
  6
CONTINUOUS
 10
245.399389
 20
122.385636
 40
1.199999
 50
-135.584657
 51
-44.415343
  0
ARC
  8
1
 62
7
  6
CONTINUOUS
 10
245.399389
 20
120.705987
 40
1.199999
 50
44.415343
 51
135.584657
  0
LINE
  8
1
 62
7
  6
CONTINUOUS
 10
252.256530
 20
156.575788
 11
251.756526
 21
154.555791
  0
LINE
  8
1
 62
7
  6
CONTINUOUS
 10
251.756526
 20
154.555791
 11
251.756526
 21
152.755791
  0
LINE
  8
1
 62
7
  6
CONTINUOUS
 10
240.256529
 20
156.575788
 11
240.756529
 21
154.555791
  0
LINE
  8
1
 62
7
  6
CONTINUOUS
 10
240.756529
 20
154.555791
 11
240.756529
 21
152.755791
  0
LINE
  8
1
 62
7
  6
CONTINUOUS
 10
281.256514
 20
235.835753
 11
289.416510
 21
236.090752
  0
LINE
  8
1
 62
7
  6
CONTINUOUS
 10
281.256514
 20
217.195767
 11
289.416510
 21
216.940768
  0
LINE
  8
1
 62
7
  6
CONTINUOUS
 10
231.266535
 20
230.841993
 11
230.877537
 21
231.515761
  0
LINE
  8
1
 62
7
  6
CONTINUOUS
 10
230.877537
 20
237.455754
 11
230.877537
 21
231.515761
  0
LINE
  8
1
 62
7
  6
CONTINUOUS
 10
227.256539
 20
230.859316
 11
227.635537
 21
231.515761
  0
LINE
  8
1
 62
7
  6
CONTINUOUS
 10
227.635537
 20
231.515761
 11
227.635537
 21
237.455754
  0
LINE
  8
1
 62
7
  6
CONTINUOUS
 10
261.246526
 20
230.841993
 11
261.635524
 21
231.515761
  0
LINE
  8
1
 62
7
  6
CONTINUOUS
 10
265.256522
 20
230.859316
 11
264.877524
 21
231.515761
  0
LINE
  8
1
 62
7
  6
CONTINUOUS
 10
264.877524
 20
231.515761
 11
264.877524
 21
237.455754
  0
LINE
  8
1
 62
7
  6
CONTINUOUS
 10
261.635524
 20
237.455754
 11
261.635524
 21
231.515761
  0
CIRCLE
  8
1
 62
7
  6
CONTINUOUS
 10
246.256531
 20
257.865743
 40
10.499996
  0
LINE
  8
1
 62
7
  6
CONTINUOUS
 10
230.877537
 20
269.892672
 11
230.877537
 21
267.802672
  0
LINE
  8
1
 62
7
  6
CONTINUOUS
 10
227.635537
 20
269.892672
 11
227.635537
 21
267.802672
  0
LINE
  8
1
 62
7
  6
CONTINUOUS
 10
227.635537
 20
245.892680
 11
227.635537
 21
247.892678
  0
LINE
  8
1
 62
7
  6
CONTINUOUS
 10
230.877537
 20
245.892680
 11
230.877537
 21
247.892678
  0
LINE
  8
1
 62
7
  6
CONTINUOUS
 10
261.635524
 20
245.892680
 11
261.635524
 21
247.892678
  0
LINE
  8
1
 62
7
  6
CONTINUOUS
 10
264.877524
 20
245.892680
 11
264.877524
 21
247.892678
  0
LINE
  8
1
 62
7
  6
CONTINUOUS
 10
261.635524
 20
269.892672
 11
261.635524
 21
267.802672
  0
LINE
  8
1
 62
7
  6
CONTINUOUS
 10
264.877524
 20
269.892672
 11
264.877524
 21
267.802672
  0
LINE
  8
1
 62
7
  6
CONTINUOUS
 10
249.256528
 20
332.151715
 11
249.256528
 21
327.213715
  0
LINE
  8
1
 62
7
  6
CONTINUOUS
 10
249.256528
 20
322.281716
 11
249.256528
 21
317.351719
  0
LINE
  8
1
 62
7
  6
CONTINUOUS
 10
249.256528
 20
337.695711
 11
249.256528
 21
343.175708
  0
LINE
  8
1
 62
7
  6
CONTINUOUS
 10
243.256528
 20
337.695711
 11
243.256528
 21
343.175708
  0
LINE
  8
1
 62
7
  6
CONTINUOUS
 10
243.256528
 20
320.309717
 11
243.256528
 21
316.675717
  0
LINE
  8
1
 62
7
  6
CONTINUOUS
 10
243.256528
 20
336.095711
 11
243.256528
 21
334.690970
  0
LINE
  8
1
 62
7
  6
CONTINUOUS
 10
243.256528
 20
330.179716
 11
243.256528
 21
325.253777
  0
LINE
  8
1
 62
7
  6
CONTINUOUS
 10
249.356528
 20
349.660709
 11
243.156531
 21
358.060704
  0
LINE
  8
1
 62
7
  6
CONTINUOUS
 10
249.356528
 20
358.060704
 11
243.156531
 21
349.660709
  0
LINE
  8
1
 62
7
  6
DASHDOT
 10
263.246524
 20
344.442378
 11
263.246524
 21
355.415707
  0
LINE
  8
1
 62
7
  6
DASHDOT
 10
229.266535
 20
344.442378
 11
229.266535
 21
355.415707
  0
ARC
  8
1
 62
7
  6
CONTINUOUS
 10
60.384653
 20
120.748836
 40
1.199999
 50
44.415343
 51
135.584657
  0
ARC
  8
1
 62
7
  6
CONTINUOUS
 10
60.384653
 20
122.428489
 40
1.199999
 50
-135.584657
 51
-44.415343
  0
ARC
  8
1
 62
7
  6
CONTINUOUS
 10
62.029445
 20
122.493981
 40
1.199999
 50
-131.024089
 51
-39.448652
  0
LINE
  8
1
 62
7
  6
CONTINUOUS
 10
55.691801
 20
156.545789
 11
56.371801
 21
154.745794
  0
LINE
  8
1
 62
7
  6
CONTINUOUS
 10
56.371801
 20
154.745794
 11
56.371801
 21
152.745793
  0
LINE
  8
1
 62
7
  6
CONTINUOUS
 10
66.801796
 20
156.545789
 11
66.111798
 21
154.745794
  0
LINE
  8
1
 62
7
  6
CONTINUOUS
 10
66.113227
 20
154.745788
 11
66.113227
 21
145.717225
  0
CIRCLE
  8
1
 62
7
  6
CONTINUOUS
 10
61.241799
 20
226.515758
 40
10.499996
  0
LINE
  8
1
 62
7
  6
CONTINUOUS
 10
76.231794
 20
231.191991
 11
76.620793
 21
231.865758
  0
LINE
  8
1
 62
7
  6
CONTINUOUS
 10
80.241791
 20
231.209314
 11
79.862793
 21
231.865758
  0
LINE
  8
1
 62
7
  6
CONTINUOUS
 10
42.241807
 20
231.209314
 11
42.620806
 21
231.865758
  0
LINE
  8
1
 62
7
  6
CONTINUOUS
 10
46.251804
 20
231.191991
 11
45.862805
 21
231.865758
  0
LINE
  8
1
 62
7
  6
CONTINUOUS
 10
42.620806
 20
231.865758
 11
42.620806
 21
238.515751
  0
LINE
  8
1
 62
7
  6
CONTINUOUS
 10
45.862805
 20
238.515751
 11
45.862805
 21
231.865758
  0
LINE
  8
1
 62
7
  6
CONTINUOUS
 10
76.620793
 20
238.515751
 11
76.620793
 21
231.865758
  0
LINE
  8
1
 62
7
  6
CONTINUOUS
 10
79.862793
 20
231.865758
 11
79.862793
 21
238.515751
  0
LINE
  8
1
 62
7
  6
CONTINUOUS
 10
42.620806
 20
268.865740
 11
42.620806
 21
267.802672
  0
LINE
  8
1
 62
7
  6
CONTINUOUS
 10
45.862805
 20
268.865740
 11
45.862805
 21
267.802672
  0
LINE
  8
1
 62
7
  6
CONTINUOUS
 10
76.620793
 20
268.865740
 11
76.620793
 21
267.802672
  0
LINE
  8
1
 62
7
  6
CONTINUOUS
 10
79.862793
 20
268.865740
 11
79.862793
 21
267.802672
  0
LINE
  8
1
 62
7
  6
DASHDOT
 10
44.241805
 20
270.532406
 11
44.241805
 21
266.136006
  0
LINE
  8
1
 62
7
  6
DASHDOT
 10
78.241793
 20
270.532406
 11
78.241793
 21
266.136006
  0
LINE
  8
1
 62
7
  6
CONTINUOUS
 10
42.620806
 20
246.925747
 11
42.620806
 21
247.865748
  0
LINE
  8
1
 62
7
  6
CONTINUOUS
 10
45.862805
 20
246.925747
 11
45.862805
 21
247.865748
  0
LINE
  8
1
 62
7
  6
CONTINUOUS
 10
79.862793
 20
246.925747
 11
79.862793
 21
247.865748
  0
LINE
  8
1
 62
7
  6
CONTINUOUS
 10
76.620793
 20
246.925747
 11
76.620793
 21
247.865748
  0
LINE
  8
1
 62
7
  6
CONTINUOUS
 10
64.341796
 20
349.715705
 11
58.141799
 21
358.115700
  0
LINE
  8
1
 62
7
  6
CONTINUOUS
 10
64.341796
 20
358.115700
 11
58.141799
 21
349.715705
  0
LINE
  8
1
 62
7
  6
CONTINUOUS
 10
167.822526
 20
259.911428
 11
175.099030
 21
257.865743
  0
LINE
  8
1
 62
7
  6
CONTINUOUS
 10
175.099030
 20
257.865743
 11
167.822526
 21
255.820056
  0
LINE
  8
1
 62
7
  6
CONTINUOUS
 10
141.241765
 20
257.865743
 11
175.099030
 21
257.865743
  0
LINE
  8
1
 62
7
  6
CONTINUOUS
 10
168.680013
 20
224.470075
 11
161.403510
 21
226.515760
  0
LINE
  8
1
 62
7
  6
CONTINUOUS
 10
161.403510
 20
226.515760
 11
168.680013
 21
228.561448
  0
LINE
  8
1
 62
7
  6
CONTINUOUS
 10
201.256551
 20
226.515760
 11
161.403510
 21
226.515760
  0
ARC
  8
1
 62
7
  6
CONTINUOUS
 10
72.891792
 20
264.625742
 40
23.349988
 50
-16.855576
 51
16.777210
  0
LINE
  8
1
 62
7
  6
CONTINUOUS
 10
46.241803
 20
247.865748
 11
46.241803
 21
245.925751
  0
LINE
  8
1
 62
7
  6
CONTINUOUS
 10
76.241795
 20
247.865748
 11
76.241795
 21
245.925751
  0
LINE
  8
1
 62
7
  6
CONTINUOUS
 10
80.241791
 20
247.865748
 11
80.241791
 21
246.925747
  0
LINE
  8
1
 62
7
  6
CONTINUOUS
 10
46.241803
 20
246.925747
 11
40.241807
 21
246.925747
  0
LINE
  8
1
 62
7
  6
CONTINUOUS
 10
42.241807
 20
247.865748
 11
42.241807
 21
246.925747
  0
LINE
  8
1
 62
7
  6
CONTINUOUS
 10
46.241803
 20
268.865740
 11
40.241807
 21
268.865740
  0
LINE
  8
1
 62
7
  6
CONTINUOUS
 10
76.231794
 20
225.475962
 11
76.231794
 21
214.515759
  0
LINE
  8
1
 62
7
  6
CONTINUOUS
 10
76.231794
 20
238.515751
 11
76.231794
 21
227.555553
  0
LINE
  8
1
 62
7
  6
CONTINUOUS
 10
46.251804
 20
225.475962
 11
46.251804
 21
214.515759
  0
LINE
  8
1
 62
7
  6
CONTINUOUS
 10
46.251804
 20
238.515751
 11
46.251804
 21
227.555553
  0
LINE
  8
1
 62
7
  6
CONTINUOUS
 10
80.241791
 20
238.515751
 11
80.241791
 21
215.865759
  0
LINE
  8
1
 62
7
  6
CONTINUOUS
 10
42.241807
 20
238.515751
 11
42.241807
 21
215.865759
  0
LINE
  8
1
 62
7
  6
CONTINUOUS
 10
74.241794
 20
238.515751
 11
74.241794
 21
231.065755
  0
LINE
  8
1
 62
7
  6
CONTINUOUS
 10
74.241794
 20
214.515759
 11
74.241794
 21
221.885759
  0
LINE
  8
1
 62
7
  6
CONTINUOUS
 10
48.241804
 20
214.515759
 11
48.241804
 21
221.885759
  0
LINE
  8
1
 62
7
  6
CONTINUOUS
 10
48.241804
 20
238.515751
 11
48.241804
 21
231.065755
  0
LINE
  8
1
 62
7
  6
CONTINUOUS
 10
39.141805
 20
238.515751
 11
49.761210
 21
238.515751
  0
LINE
  8
1
 62
7
  6
CONTINUOUS
 10
39.141805
 20
214.515759
 11
49.761210
 21
214.515759
  0
LINE
  8
1
 62
7
  6
CONTINUOUS
 10
83.341791
 20
214.515759
 11
72.693536
 21
214.515759
  0
LINE
  8
1
 62
7
  6
CONTINUOUS
 10
72.693536
 20
238.515751
 11
83.341791
 21
238.515751
  0
ARC
  8
1
 62
7
  6
CONTINUOUS
 10
83.341791
 20
239.515750
 40
0.999999
 50
-90.000000
 51
0.000000
  0
LINE
  8
1
 62
7
  6
CONTINUOUS
 10
46.251804
 20
231.865756
 11
42.241807
 21
231.865756
  0
LINE
  8
1
 62
7
  6
CONTINUOUS
 10
76.231794
 20
231.865756
 11
80.241791
 21
231.865756
  0
LINE
  8
1
 62
7
  6
CONTINUOUS
 10
80.241791
 20
268.865740
 11
80.241791
 21
267.802672
  0
LINE
  8
1
 62
7
  6
CONTINUOUS
 10
42.241807
 20
268.865740
 11
42.241807
 21
267.802672
  0
LINE
  8
1
 62
7
  6
CONTINUOUS
 10
80.241791
 20
247.865748
 11
76.241795
 21
247.865748
  0
LINE
  8
1
 62
7
  6
CONTINUOUS
 10
42.241807
 20
247.865748
 11
46.241803
 21
247.865748
  0
LINE
  8
1
 62
7
  6
CONTINUOUS
 10
76.241795
 20
267.802672
 11
80.241791
 21
267.802672
  0
LINE
  8
1
 62
7
  6
CONTINUOUS
 10
76.241795
 20
269.892672
 11
76.241795
 21
267.802672
  0
LINE
  8
1
 62
7
  6
CONTINUOUS
 10
46.241803
 20
269.892672
 11
46.241803
 21
267.802672
  0
LINE
  8
1
 62
7
  6
CONTINUOUS
 10
46.241803
 20
267.802672
 11
42.241807
 21
267.802672
  0
LINE
  8
1
 62
7
  6
CONTINUOUS
 10
84.341790
 20
241.515751
 11
84.341790
 21
239.515750
  0
LINE
  8
1
 62
7
  6
CONTINUOUS
 10
80.741792
 20
231.515755
 11
80.241794
 21
231.515755
  0
ARC
  8
1
 62
7
  6
CONTINUOUS
 10
82.241794
 20
236.515753
 40
1.999998
 50
90.022287
 51
179.976661
  0
LINE
  8
1
 62
7
  6
CONTINUOUS
 10
69.041796
 20
240.015751
 11
76.831795
 21
226.515758
  0
LINE
  8
1
 62
7
  6
CONTINUOUS
 10
53.441802
 20
240.015751
 11
69.041796
 21
240.015751
  0
LINE
  8
1
 62
7
  6
CONTINUOUS
 10
84.341790
 20
241.515751
 11
38.141809
 21
241.515751
  0
LINE
  8
1
 62
7
  6
CONTINUOUS
 10
41.741807
 20
231.515755
 11
42.241805
 21
231.515755
  0
ARC
  8
1
 62
7
  6
CONTINUOUS
 10
40.241804
 20
236.515753
 40
1.999998
 50
0.023339
 51
89.977713
  0
LINE
  8
1
 62
7
  6
CONTINUOUS
 10
38.141809
 20
241.515751
 11
38.141809
 21
239.515750
  0
ARC
  8
1
 62
7
  6
CONTINUOUS
 10
39.141805
 20
239.515750
 40
0.999999
 50
180.000000
 51
-89.988330
  0
LINE
  8
1
 62
7
  6
CONTINUOUS
 10
53.441802
 20
240.015751
 11
45.651803
 21
226.515758
  0
ARC
  8
1
 62
7
  6
CONTINUOUS
 10
40.241804
 20
216.515760
 40
1.999998
 50
-89.988330
 51
0.023339
  0
ARC
  8
1
 62
7
  6
CONTINUOUS
 10
39.141805
 20
213.515763
 40
0.999999
 50
89.977713
 51
179.989383
  0
LINE
  8
1
 62
7
  6
CONTINUOUS
 10
41.741807
 20
221.515757
 11
41.741807
 21
231.515755
  0
LINE
  8
1
 62
7
  6
CONTINUOUS
 10
42.221806
 20
221.515757
 11
41.741807
 21
221.515757
  0
LINE
  8
1
 62
7
  6
CONTINUOUS
 10
45.651803
 20
226.515758
 11
53.441802
 21
213.015764
  0
LINE
  8
1
 62
7
  6
CONTINUOUS
 10
53.441802
 20
213.015764
 11
69.041796
 21
213.015764
  0
LINE
  8
1
 62
7
  6
CONTINUOUS
 10
76.831795
 20
226.515758
 11
69.041796
 21
213.015764
  0
LINE
  8
1
 62
7
  6
CONTINUOUS
 10
80.261789
 20
221.515757
 11
80.741792
 21
221.515757
  0
ARC
  8
1
 62
7
  6
CONTINUOUS
 10
82.241794
 20
216.515760
 40
1.999998
 50
179.976661
 51
-90.011670
  0
ARC
  8
1
 62
7
  6
CONTINUOUS
 10
83.341791
 20
213.515763
 40
0.999999
 50
0.010617
 51
90.022287
  0
LINE
  8
1
 62
7
  6
CONTINUOUS
 10
80.741792
 20
221.515757
 11
80.741792
 21
231.515755
  0
CIRCLE
  8
1
 62
7
  6
CONTINUOUS
 10
61.241799
 20
226.515758
 40
13.419994
  0
CIRCLE
  8
1
 62
7
  6
CONTINUOUS
 10
61.241799
 20
226.515758
 40
9.319995
  0
LINE
  8
1
 62
7
  6
CONTINUOUS
 10
58.141799
 20
358.115700
 11
64.341796
 21
358.115700
  0
LINE
  8
1
 62
7
  6
CONTINUOUS
 10
64.341796
 20
358.115700
 11
64.341796
 21
349.715705
  0
LINE
  8
1
 62
7
  6
CONTINUOUS
 10
58.141799
 20
349.715705
 11
58.141799
 21
358.115700
  0
ARC
  8
1
 62
7
  6
CONTINUOUS
 10
70.681796
 20
255.915745
 40
0.559999
 50
-45.732649
 51
45.711415
  0
LINE
  8
1
 62
7
  6
CONTINUOUS
 10
68.841796
 20
253.305749
 11
71.071793
 21
255.525745
  0
LINE
  8
1
 62
7
  6
CONTINUOUS
 10
69.341797
 20
255.355747
 11
56.241801
 21
255.355747
  0
LINE
  8
1
 62
7
  6
CONTINUOUS
 10
68.061796
 20
254.085746
 11
69.341797
 21
255.355747
  0
ARC
  8
1
 62
7
  6
CONTINUOUS
 10
68.451793
 20
253.695746
 40
0.549998
 50
134.988857
 51
-44.987804
  0
LINE
  8
1
 62
7
  6
CONTINUOUS
 10
68.841796
 20
258.525748
 11
71.071793
 21
256.305746
  0
ARC
  8
1
 62
7
  6
CONTINUOUS
 10
68.451793
 20
258.135742
 40
0.549998
 50
44.977187
 51
-135.744319
  0
LINE
  8
1
 62
7
  6
CONTINUOUS
 10
69.341797
 20
256.465744
 11
68.061796
 21
257.755743
  0
LINE
  8
1
 62
7
  6
CONTINUOUS
 10
56.241801
 20
256.465744
 11
69.341797
 21
256.465744
  0
ARC
  8
1
 62
7
  6
CONTINUOUS
 10
56.241801
 20
255.915745
 40
0.559999
 50
90.011670
 51
-90.022287
  0
LINE
  8
1
 62
7
  6
CONTINUOUS
 10
64.301797
 20
260.465745
 11
64.301797
 21
262.305742
  0
LINE
  8
1
 62
7
  6
CONTINUOUS
 10
66.321796
 20
262.505743
 11
64.301797
 21
260.465745
  0
ARC
  8
1
 62
7
  6
CONTINUOUS
 10
66.521796
 20
262.305742
 40
0.280002
 50
-46.477495
 51
134.978239
  0
LINE
  8
1
 62
7
  6
CONTINUOUS
 10
64.681799
 20
260.075742
 11
66.711799
 21
262.105742
  0
LINE
  8
1
 62
7
  6
CONTINUOUS
 10
66.721797
 20
258.055743
 11
64.681799
 21
260.075742
  0
ARC
  8
1
 62
7
  6
CONTINUOUS
 10
66.521796
 20
257.865743
 40
0.280002
 50
-133.624375
 51
43.534175
  0
LINE
  8
1
 62
7
  6
CONTINUOUS
 10
64.301797
 20
259.685745
 11
66.321796
 21
257.665746
  0
LINE
  8
1
 62
7
  6
CONTINUOUS
 10
64.301797
 20
257.865743
 11
64.301797
 21
259.685745
  0
ARC
  8
1
 62
7
  6
CONTINUOUS
 10
64.021797
 20
257.865743
 40
0.280002
 50
-179.976661
 51
-0.010617
  0
LINE
  8
1
 62
7
  6
CONTINUOUS
 10
63.741798
 20
262.305742
 11
63.741798
 21
257.865743
  0
ARC
  8
1
 62
7
  6
CONTINUOUS
 10
64.021797
 20
262.305742
 40
0.280002
 50
0.000000
 51
-179.976661
  0
ARC
  8
1
 62
7
  6
CONTINUOUS
 10
62.491799
 20
261.465741
 40
0.280002
 50
-136.489164
 51
22.907694
  0
LINE
  8
1
 62
7
  6
CONTINUOUS
 10
62.141798
 20
261.535743
 11
62.291798
 21
261.275744
  0
ARC
  8
1
 62
7
  6
CONTINUOUS
 10
61.381799
 20
261.195743
 40
0.830000
 50
24.751777
 51
90.011670
  0
LINE
  8
1
 62
7
  6
CONTINUOUS
 10
61.101797
 20
262.025743
 11
61.381799
 21
262.025743
  0
ARC
  8
1
 62
7
  6
CONTINUOUS
 10
61.101797
 20
261.195743
 40
0.830000
 50
90.011670
 51
-90.022287
  0
LINE
  8
1
 62
7
  6
CONTINUOUS
 10
61.381799
 20
260.365742
 11
61.101797
 21
260.365742
  0
ARC
  8
1
 62
7
  6
CONTINUOUS
 10
61.381799
 20
258.965743
 40
1.389999
 50
-90.022287
 51
90.001052
  0
LINE
  8
1
 62
7
  6
CONTINUOUS
 10
61.101797
 20
257.575743
 11
61.381799
 21
257.575743
  0
ARC
  8
1
 62
7
  6
CONTINUOUS
 10
61.101797
 20
258.965743
 40
1.389999
 50
-153.448715
 51
-90.022287
  0
LINE
  8
1
 62
7
  6
CONTINUOUS
 10
59.761800
 20
258.535746
 11
59.871801
 21
258.335743
  0
ARC
  8
1
 62
7
  6
CONTINUOUS
 10
59.991800
 20
258.695744
 40
0.280002
 50
22.918312
 51
-146.916996
  0
LINE
  8
1
 62
7
  6
CONTINUOUS
 10
60.341798
 20
258.625745
 11
60.251801
 21
258.805744
  0
ARC
  8
1
 62
7
  6
CONTINUOUS
 10
61.101797
 20
258.965743
 40
0.830000
 50
-155.912433
 51
-90.022287
  0
LINE
  8
1
 62
7
  6
CONTINUOUS
 10
61.381799
 20
258.135742
 11
61.101797
 21
258.135742
  0
ARC
  8
1
 62
7
  6
CONTINUOUS
 10
61.381799
 20
258.965743
 40
0.830000
 50
-90.022287
 51
90.001052
  0
LINE
  8
1
 62
7
  6
CONTINUOUS
 10
61.101797
 20
259.805743
 11
61.381799
 21
259.805743
  0
ARC
  8
1
 62
7
  6
CONTINUOUS
 10
61.101797
 20
261.195743
 40
1.389999
 50
90.011670
 51
-90.022287
  0
LINE
  8
1
 62
7
  6
CONTINUOUS
 10
61.381799
 20
262.575741
 11
61.101797
 21
262.575741
  0
ARC
  8
1
 62
7
  6
CONTINUOUS
 10
61.381799
 20
261.195743
 40
1.389999
 50
27.845749
 51
90.011670
  0
LINE
  8
1
 62
7
  6
CONTINUOUS
 10
62.751800
 20
261.565744
 11
62.611797
 21
261.845741
  0
LINE
  8
1
 62
7
  6
CONTINUOUS
 10
56.241801
 20
258.135742
 11
57.351801
 21
258.135742
  0
LINE
  8
1
 62
7
  6
CONTINUOUS
 10
56.241801
 20
259.805743
 11
56.241801
 21
258.135742
  0
LINE
  8
1
 62
7
  6
CONTINUOUS
 10
57.351801
 20
259.805743
 11
56.241801
 21
259.805743
  0
ARC
  8
1
 62
7
  6
CONTINUOUS
 10
57.351801
 20
258.965743
 40
0.830000
 50
-90.022287
 51
90.001052
  0
LINE
  8
1
 62
7
  6
CONTINUOUS
 10
56.241801
 20
260.365742
 11
57.351801
 21
260.365742
  0
LINE
  8
1
 62
7
  6
CONTINUOUS
 10
56.241801
 20
262.025743
 11
56.241801
 21
260.365742
  0
LINE
  8
1
 62
7
  6
CONTINUOUS
 10
57.351801
 20
262.025743
 11
56.241801
 21
262.025743
  0
ARC
  8
1
 62
7
  6
CONTINUOUS
 10
57.351801
 20
261.195743
 40
0.830000
 50
-90.022287
 51
90.001052
  0
ARC
  8
1
 62
7
  6
CONTINUOUS
 10
57.351801
 20
261.195743
 40
1.389999
 50
-53.467580
 51
90.001052
  0
ARC
  8
1
 62
7
  6
CONTINUOUS
 10
57.351801
 20
258.965743
 40
1.389999
 50
-91.225498
 51
53.217162
  0
LINE
  8
1
 62
7
  6
CONTINUOUS
 10
55.681800
 20
257.575743
 11
57.321802
 21
257.575743
  0
LINE
  8
1
 62
7
  6
CONTINUOUS
 10
55.681800
 20
262.575741
 11
55.681800
 21
257.575743
  0
LINE
  8
1
 62
7
  6
CONTINUOUS
 10
57.351801
 20
262.575741
 11
55.681800
 21
262.575741
  0
LINE
  8
1
 62
7
  6
CONTINUOUS
 10
40.241807
 20
246.925747
 11
40.241807
 21
242.865750
  0
LINE
  8
1
 62
7
  6
CONTINUOUS
 10
76.241792
 20
245.925751
 11
46.251804
 21
245.925751
  0
LINE
  8
1
 62
7
  6
CONTINUOUS
 10
82.241792
 20
246.925747
 11
76.241792
 21
246.925747
  0
LINE
  8
1
 62
7
  6
CONTINUOUS
 10
82.241792
 20
242.865750
 11
82.241792
 21
246.925747
  0
LINE
  8
1
 62
7
  6
CONTINUOUS
 10
40.241807
 20
268.865740
 11
40.241807
 21
272.865739
  0
LINE
  8
1
 62
7
  6
CONTINUOUS
 10
76.241792
 20
269.865739
 11
46.251804
 21
269.865739
  0
LINE
  8
1
 62
7
  6
CONTINUOUS
 10
82.241792
 20
268.865740
 11
76.241792
 21
268.865740
  0
LINE
  8
1
 62
7
  6
CONTINUOUS
 10
82.241792
 20
272.865739
 11
82.241792
 21
268.865740
  0
LINE
  8
1
 62
7
  6
CONTINUOUS
 10
76.241792
 20
251.115748
 11
76.241792
 21
264.615741
  0
LINE
  8
1
 62
7
  6
CONTINUOUS
 10
46.241806
 20
264.615741
 11
46.241806
 21
251.115748
  0
LINE
  8
1
 62
7
  6
CONTINUOUS
 10
27.241812
 20
257.865743
 11
36.241811
 21
257.865743
  0
ARC
  8
1
 62
7
  6
CONTINUOUS
 10
14.201820
 20
264.575739
 40
23.049988
 50
-16.912872
 51
16.948933
  0
ARC
  8
1
 62
7
  6
CONTINUOUS
 10
14.301820
 20
251.165746
 40
22.939990
 50
-16.970168
 51
17.006229
  0
ARC
  8
1
 62
7
  6
CONTINUOUS
 10
49.181803
 20
251.165746
 40
22.939990
 50
163.006493
 51
-163.017110
  0
ARC
  8
1
 62
7
  6
CONTINUOUS
 10
49.351804
 20
264.585745
 40
23.109991
 50
163.063788
 51
-163.074406
  0
LINE
  8
1
 62
7
  6
CONTINUOUS
 10
95.241784
 20
257.865743
 11
86.241788
 21
257.865743
  0
ARC
  8
1
 62
7
  6
CONTINUOUS
 10
108.291777
 20
251.155748
 40
23.049988
 50
163.063788
 51
-163.074406
  0
ARC
  8
1
 62
7
  6
CONTINUOUS
 10
108.451780
 20
264.605741
 40
23.209989
 50
163.121084
 51
-163.131702
  0
ARC
  8
1
 62
7
  6
CONTINUOUS
 10
72.991792
 20
251.125749
 40
23.249991
 50
-16.855576
 51
16.834342
  0
LINE
  8
1
 62
7
  6
CONTINUOUS
 10
43.241806
 20
332.865712
 11
43.241806
 21
302.865725
  0
LINE
  8
1
 62
7
  6
CONTINUOUS
 10
79.241792
 20
302.865725
 11
43.241806
 21
302.865725
  0
LINE
  8
1
 62
7
  6
CONTINUOUS
 10
79.241792
 20
332.865712
 11
79.241792
 21
302.865725
  0
LINE
  8
1
 62
7
  6
CONTINUOUS
 10
43.241806
 20
332.865712
 11
79.241792
 21
332.865712
  0
LINE
  8
1
 62
7
  6
CONTINUOUS
 10
75.221792
 20
349.815705
 11
71.741795
 21
349.815705
  0
ARC
  8
1
 62
7
  6
CONTINUOUS
 10
71.741795
 20
348.315705
 40
1.500000
 50
90.011670
 51
-179.976661
  0
ARC
  8
1
 62
7
  6
CONTINUOUS
 10
69.741797
 20
348.325706
 40
0.500001
 50
-90.022287
 51
-0.010617
  0
LINE
  8
1
 62
7
  6
CONTINUOUS
 10
47.261806
 20
349.815705
 11
50.741803
 21
349.815705
  0
ARC
  8
1
 62
7
  6
CONTINUOUS
 10
50.741803
 20
348.315705
 40
1.500000
 50
0.000000
 51
90.011670
  0
ARC
  8
1
 62
7
  6
CONTINUOUS
 10
52.741801
 20
348.325706
 40
0.500001
 50
-179.976661
 51
-90.022287
  0
LINE
  8
1
 62
7
  6
CONTINUOUS
 10
74.841793
 20
348.935707
 11
74.751793
 21
347.815705
  0
LINE
  8
1
 62
7
  6
CONTINUOUS
 10
81.741791
 20
347.815705
 11
81.651791
 21
348.925704
  0
LINE
  8
1
 62
7
  6
CONTINUOUS
 10
78.241793
 20
350.415706
 11
79.841790
 21
348.815709
  0
LINE
  8
1
 62
7
  6
CONTINUOUS
 10
78.241793
 20
350.415706
 11
76.641793
 21
348.815709
  0
ARC
  8
1
 62
7
  6
CONTINUOUS
 10
78.241793
 20
341.415710
 40
8.999996
 50
74.083443
 51
105.882601
  0
ARC
  8
1
 62
7
  6
CONTINUOUS
 10
76.141792
 20
348.815709
 40
1.300000
 50
106.054488
 51
174.694832
  0
ARC
  8
1
 62
7
  6
CONTINUOUS
 10
80.361792
 20
348.825707
 40
1.300000
 50
4.411775
 51
74.369922
  0
LINE
  8
1
 62
7
  6
CONTINUOUS
 10
40.841808
 20
348.935707
 11
40.751808
 21
347.815705
  0
LINE
  8
1
 62
7
  6
CONTINUOUS
 10
47.741803
 20
347.815705
 11
47.651804
 21
348.925704
  0
LINE
  8
1
 62
7
  6
CONTINUOUS
 10
44.241805
 20
350.415706
 11
45.841805
 21
348.815709
  0
LINE
  8
1
 62
7
  6
CONTINUOUS
 10
44.241805
 20
350.415706
 11
42.641808
 21
348.815709
  0
ARC
  8
1
 62
7
  6
CONTINUOUS
 10
44.241805
 20
341.415710
 40
8.999996
 50
74.083443
 51
105.882601
  0
ARC
  8
1
 62
7
  6
CONTINUOUS
 10
42.141807
 20
348.815709
 40
1.300000
 50
106.054488
 51
174.694832
  0
ARC
  8
1
 62
7
  6
CONTINUOUS
 10
46.361805
 20
348.825707
 40
1.300000
 50
4.411775
 51
74.369922
  0
LINE
  8
1
 62
7
  6
CONTINUOUS
 10
65.891796
 20
349.715705
 11
65.891796
 21
347.815705
  0
LINE
  8
1
 62
7
  6
CONTINUOUS
 10
56.591799
 20
349.715705
 11
65.891796
 21
349.715705
  0
LINE
  8
1
 62
7
  6
CONTINUOUS
 10
56.591799
 20
347.815705
 11
56.591799
 21
349.715705
  0
LINE
  8
1
 62
7
  6
CONTINUOUS
 10
82.241792
 20
347.845706
 11
82.241792
 21
284.215734
  0
LINE
  8
1
 62
7
  6
CONTINUOUS
 10
40.241807
 20
347.815705
 11
82.241792
 21
347.845706
  0
LINE
  8
1
 62
7
  6
CONTINUOUS
 10
40.241807
 20
284.215734
 11
40.241807
 21
347.815705
  0
LINE
  8
1
 62
7
  6
CONTINUOUS
 10
83.241791
 20
241.515751
 11
83.241791
 21
242.865750
  0
LINE
  8
1
 62
7
  6
CONTINUOUS
 10
39.241808
 20
242.865750
 11
83.241791
 21
242.865750
  0
LINE
  8
1
 62
7
  6
CONTINUOUS
 10
39.241808
 20
241.515751
 11
39.241808
 21
242.865750
  0
LINE
  8
1
 62
7
  6
CONTINUOUS
 10
39.241808
 20
241.515751
 11
83.241791
 21
241.515751
  0
LINE
  8
1
 62
7
  6
CONTINUOUS
 10
83.241791
 20
274.215739
 11
83.241791
 21
272.865739
  0
LINE
  8
1
 62
7
  6
CONTINUOUS
 10
39.241808
 20
272.865739
 11
83.241791
 21
272.865739
  0
LINE
  8
1
 62
7
  6
CONTINUOUS
 10
39.241808
 20
274.215739
 11
83.241791
 21
274.215739
  0
LINE
  8
1
 62
7
  6
CONTINUOUS
 10
39.241808
 20
274.215739
 11
39.241808
 21
272.865739
  0
LINE
  8
1
 62
7
  6
CONTINUOUS
 10
84.341790
 20
284.215734
 11
84.341790
 21
276.315734
  0
ARC
  8
1
 62
7
  6
CONTINUOUS
 10
82.241792
 20
276.315734
 40
2.100001
 50
-90.022287
 51
-0.010617
  0
LINE
  8
1
 62
7
  6
CONTINUOUS
 10
38.141809
 20
284.215734
 11
38.141809
 21
276.315734
  0
ARC
  8
1
 62
7
  6
CONTINUOUS
 10
40.241807
 20
276.315734
 40
2.100001
 50
-179.976661
 51
-90.022287
  0
LINE
  8
1
 62
7
  6
CONTINUOUS
 10
38.141809
 20
284.215734
 11
84.341790
 21
284.215734
  0
LINE
  8
1
 62
7
  6
CONTINUOUS
 10
26.241815
 20
244.365753
 11
38.741810
 21
244.365753
  0
ARC
  8
1
 62
7
  6
CONTINUOUS
 10
38.741810
 20
242.865750
 40
1.500000
 50
0.000000
 51
90.011670
  0
LINE
  8
1
 62
7
  6
CONTINUOUS
 10
96.241783
 20
244.365753
 11
83.741789
 21
244.365753
  0
ARC
  8
1
 62
7
  6
CONTINUOUS
 10
83.741789
 20
242.865750
 40
1.500000
 50
90.011670
 51
-179.976661
  0
LINE
  8
1
 62
7
  6
CONTINUOUS
 10
26.241815
 20
271.365739
 11
38.741810
 21
271.365739
  0
ARC
  8
1
 62
7
  6
CONTINUOUS
 10
38.741810
 20
272.865739
 40
1.500000
 50
-90.022287
 51
-0.010617
  0
LINE
  8
1
 62
7
  6
CONTINUOUS
 10
96.241783
 20
271.365739
 11
83.741789
 21
271.365739
  0
ARC
  8
1
 62
7
  6
CONTINUOUS
 10
83.741789
 20
272.865739
 40
1.500000
 50
-179.976661
 51
-90.022287
  0
LINE
  8
1
 62
7
  6
CONTINUOUS
 10
26.241815
 20
271.365739
 11
26.241815
 21
244.365753
  0
LINE
  8
1
 62
7
  6
CONTINUOUS
 10
96.241783
 20
271.365739
 11
96.241783
 21
244.365753
  0
LINE
  8
1
 62
7
  6
CONTINUOUS
 10
58.841795
 20
127.731514
 11
61.241799
 21
127.731514
  0
LINE
  8
1
 62
7
  6
CONTINUOUS
 10
59.527514
 20
127.731514
 11
59.527514
 21
121.588662
  0
LINE
  8
1
 62
7
  6
CONTINUOUS
 10
56.465652
 20
141.731511
 11
61.241799
 21
141.731511
  0
LINE
  8
1
 62
7
  6
CONTINUOUS
 10
62.956084
 20
141.731511
 11
62.956084
 21
121.588662
  0
LINE
  8
1
 62
7
  6
CONTINUOUS
 10
58.741800
 20
131.731516
 11
61.241799
 21
131.731516
  0
LINE
  8
1
 62
7
  6
CONTINUOUS
 10
58.741800
 20
137.731510
 11
61.241799
 21
137.731510
  0
LINE
  8
1
 62
7
  6
CONTINUOUS
 10
58.841795
 20
131.731516
 11
58.841795
 21
127.731514
  0
LINE
  8
1
 62
7
  6
CONTINUOUS
 10
58.741800
 20
137.731510
 11
58.741800
 21
131.731516
  0
LINE
  8
1
 62
7
  6
CONTINUOUS
 10
54.991802
 20
141.731511
 11
58.741800
 21
137.731510
  0
LINE
  8
1
 62
7
  6
CONTINUOUS
 10
63.991793
 20
141.745796
 11
61.241799
 21
141.745796
  0
LINE
  8
1
 62
7
  6
CONTINUOUS
 10
63.991793
 20
141.745796
 11
65.841796
 21
143.595794
  0
LINE
  8
1
 62
7
  6
CONTINUOUS
 10
61.241799
 20
143.595794
 11
65.841796
 21
143.595794
  0
LINE
  8
1
 62
7
  6
CONTINUOUS
 10
61.241799
 20
145.445794
 11
65.841796
 21
145.445794
  0
LINE
  8
1
 62
7
  6
CONTINUOUS
 10
65.841796
 20
145.445794
 11
66.798940
 21
146.402938
  0
LINE
  8
1
 62
7
  6
CONTINUOUS
 10
65.841796
 20
143.595794
 11
65.841796
 21
145.445794
  0
ARC
  8
1
 62
7
  6
CONTINUOUS
 10
66.435661
 20
159.606665
 40
3.060879
 50
-124.544368
 51
-55.444713
  0
ARC
  8
1
 62
7
  6
CONTINUOUS
 10
56.049695
 20
159.612324
 40
3.066535
 50
-124.522421
 51
-55.513851
  0
LINE
  8
1
 62
7
  6
CONTINUOUS
 10
57.781801
 20
163.505545
 11
57.781801
 21
157.085789
  0
ARC
  8
1
 62
7
  6
CONTINUOUS
 10
61.241799
 20
152.695790
 40
11.349995
 50
72.249978
 51
107.748891
  0
ARC
  8
1
 62
7
  6
CONTINUOUS
 10
66.436566
 20
160.988651
 40
3.057134
 50
55.417011
 51
124.580996
  0
ARC
  8
1
 62
7
  6
CONTINUOUS
 10
56.046756
 20
160.989527
 40
3.056258
 50
55.409901
 51
124.588106
  0
LINE
  8
1
 62
7
  6
CONTINUOUS
 10
61.241799
 20
152.731503
 11
54.991802
 21
152.731503
  0
LINE
  8
1
 62
7
  6
CONTINUOUS
 10
54.991802
 20
152.731503
 11
54.991802
 21
141.731511
  0
LINE
  8
1
 62
7
  6
CONTINUOUS
 10
66.798940
 20
156.545789
 11
66.798940
 21
146.402938
  0
LINE
  8
1
 62
7
  6
CONTINUOUS
 10
55.691801
 20
154.745794
 11
66.801796
 21
154.745794
  0
LINE
  8
1
 62
7
  6
CONTINUOUS
 10
55.691801
 20
156.545789
 11
55.691801
 21
152.745793
  0
LINE
  8
1
 62
7
  6
CONTINUOUS
 10
54.311802
 20
157.085789
 11
54.311802
 21
163.505788
  0
LINE
  8
1
 62
7
  6
CONTINUOUS
 10
64.701798
 20
157.085789
 11
64.701798
 21
163.505788
  0
LINE
  8
1
 62
7
  6
CONTINUOUS
 10
68.171796
 20
163.505788
 11
68.171796
 21
157.085789
  0
LINE
  8
1
 62
7
  6
CONTINUOUS
 10
67.241799
 20
164.045785
 11
68.171796
 21
163.505788
  0
LINE
  8
1
 62
7
  6
CONTINUOUS
 10
54.311802
 20
163.505788
 11
55.241800
 21
164.045785
  0
ARC
  8
1
 62
7
  6
CONTINUOUS
 10
61.241799
 20
167.895786
 40
11.349995
 50
-107.726683
 51
-72.260595
  0
LINE
  8
1
 62
7
  6
CONTINUOUS
 10
67.241799
 20
156.545789
 11
68.171796
 21
157.085789
  0
LINE
  8
1
 62
7
  6
CONTINUOUS
 10
55.241800
 20
156.545789
 11
67.241799
 21
156.545789
  0
LINE
  8
1
 62
7
  6
CONTINUOUS
 10
54.311802
 20
157.085789
 11
55.241800
 21
156.545789
  0
LINE
  8
1
 62
7
  6
CONTINUOUS
 10
42.341808
 20
196.845771
 11
80.141791
 21
196.845771
  0
LINE
  8
1
 62
7
  6
CONTINUOUS
 10
80.641789
 20
200.145771
 11
80.641789
 21
197.345772
  0
ARC
  8
1
 62
7
  6
CONTINUOUS
 10
80.141791
 20
197.345772
 40
0.500001
 50
-90.022287
 51
-0.010617
  0
LINE
  8
1
 62
7
  6
CONTINUOUS
 10
41.841807
 20
200.145771
 11
41.841807
 21
197.345772
  0
ARC
  8
1
 62
7
  6
CONTINUOUS
 10
42.341808
 20
197.345772
 40
0.500001
 50
-179.976661
 51
-90.022287
  0
LINE
  8
1
 62
7
  6
CONTINUOUS
 10
47.741803
 20
164.045785
 11
74.741795
 21
164.045785
  0
LINE
  8
1
 62
7
  6
CONTINUOUS
 10
79.741793
 20
196.845771
 11
79.741793
 21
169.045783
  0
ARC
  8
1
 62
7
  6
CONTINUOUS
 10
74.741795
 20
169.045783
 40
4.999998
 50
-90.022287
 51
-0.010617
  0
LINE
  8
1
 62
7
  6
CONTINUOUS
 10
42.741806
 20
196.845771
 11
42.741806
 21
169.045783
  0
ARC
  8
1
 62
7
  6
CONTINUOUS
 10
47.741803
 20
169.045783
 40
4.999998
 50
-179.976661
 51
-90.022287
  0
LINE
  8
1
 62
7
  6
CONTINUOUS
 10
84.341790
 20
200.145771
 11
84.341790
 21
208.045768
  0
ARC
  8
1
 62
7
  6
CONTINUOUS
 10
82.241792
 20
208.045768
 40
2.100001
 50
0.000000
 51
90.011670
  0
LINE
  8
1
 62
7
  6
CONTINUOUS
 10
38.141809
 20
200.145771
 11
38.141809
 21
208.045768
  0
ARC
  8
1
 62
7
  6
CONTINUOUS
 10
40.241807
 20
208.045768
 40
2.100001
 50
90.011670
 51
-179.976661
  0
LINE
  8
1
 62
7
  6
CONTINUOUS
 10
38.141809
 20
200.145771
 11
84.341790
 21
200.145771
  0
LINE
  8
1
 62
7
  6
CONTINUOUS
 10
39.241808
 20
210.145764
 11
83.241791
 21
210.145764
  0
LINE
  8
1
 62
7
  6
CONTINUOUS
 10
39.241808
 20
210.145764
 11
39.241808
 21
211.445763
  0
LINE
  8
1
 62
7
  6
CONTINUOUS
 10
38.141809
 20
211.445763
 11
38.141809
 21
213.515763
  0
LINE
  8
1
 62
7
  6
CONTINUOUS
 10
84.341790
 20
211.445763
 11
38.141809
 21
211.445763
  0
LINE
  8
1
 62
7
  6
CONTINUOUS
 10
83.241791
 20
210.145764
 11
83.241791
 21
211.445763
  0
LINE
  8
1
 62
7
  6
CONTINUOUS
 10
84.341790
 20
211.445763
 11
84.341790
 21
213.515763
  0
LINE
  8
1
 62
7
  6
CONTINUOUS
 10
259.256523
 20
269.892672
 11
259.256523
 21
262.495745
  0
LINE
  8
1
 62
7
  6
CONTINUOUS
 10
233.256533
 20
269.892672
 11
233.256533
 21
262.495745
  0
LINE
  8
1
 62
7
  6
CONTINUOUS
 10
233.256533
 20
245.892680
 11
233.256533
 21
253.315746
  0
LINE
  8
1
 62
7
  6
CONTINUOUS
 10
259.256523
 20
245.892680
 11
259.256523
 21
253.315746
  0
LINE
  8
1
 62
7
  6
CONTINUOUS
 10
265.256525
 20
267.865744
 11
265.256525
 21
245.892680
  0
LINE
  8
1
 62
7
  6
CONTINUOUS
 10
227.256536
 20
269.892672
 11
227.256536
 21
245.892680
  0
LINE
  8
1
 62
7
  6
CONTINUOUS
 10
265.256522
 20
267.802672
 11
265.256522
 21
269.892672
  0
LINE
  8
1
 62
7
  6
CONTINUOUS
 10
224.156536
 20
245.892680
 11
235.954866
 21
245.892680
  0
LINE
  8
1
 62
7
  6
CONTINUOUS
 10
268.356522
 20
245.892680
 11
256.661526
 21
245.892680
  0
LINE
  8
1
 62
7
  6
CONTINUOUS
 10
261.256526
 20
267.802672
 11
265.256522
 21
267.802672
  0
LINE
  8
1
 62
7
  6
CONTINUOUS
 10
261.256526
 20
269.892672
 11
261.256526
 21
267.802672
  0
LINE
  8
1
 62
7
  6
CONTINUOUS
 10
268.356522
 20
269.892672
 11
256.543191
 21
269.892672
  0
LINE
  8
1
 62
7
  6
CONTINUOUS
 10
261.256526
 20
247.892678
 11
261.256526
 21
245.892680
  0
LINE
  8
1
 62
7
  6
CONTINUOUS
 10
265.256522
 20
247.892678
 11
261.256526
 21
247.892678
  0
LINE
  8
1
 62
7
  6
CONTINUOUS
 10
231.256535
 20
247.892678
 11
231.256535
 21
245.892680
  0
LINE
  8
1
 62
7
  6
CONTINUOUS
 10
227.256539
 20
247.892678
 11
231.256535
 21
247.892678
  0
LINE
  8
1
 62
7
  6
CONTINUOUS
 10
231.256535
 20
269.892672
 11
231.256535
 21
267.802672
  0
LINE
  8
1
 62
7
  6
CONTINUOUS
 10
224.156536
 20
269.892672
 11
235.714866
 21
269.892672
  0
LINE
  8
1
 62
7
  6
CONTINUOUS
 10
231.256535
 20
267.802672
 11
227.256539
 21
267.802672
  0
LINE
  8
1
 62
7
  6
CONTINUOUS
 10
288.272266
 20
237.234996
 11
288.272266
 21
215.796524
  0
LINE
  8
1
 62
7
  6
CONTINUOUS
 10
261.246526
 20
231.515758
 11
265.256522
 21
231.515758
  0
LINE
  8
1
 62
7
  6
CONTINUOUS
 10
265.256522
 20
237.455754
 11
265.256522
 21
215.515761
  0
LINE
  8
1
 62
7
  6
CONTINUOUS
 10
261.246526
 20
237.455754
 11
261.246526
 21
215.515761
  0
LINE
  8
1
 62
7
  6
CONTINUOUS
 10
227.256539
 20
237.455754
 11
227.256539
 21
215.515761
  0
LINE
  8
1
 62
7
  6
CONTINUOUS
 10
231.266535
 20
231.515758
 11
227.256539
 21
231.515758
  0
LINE
  8
1
 62
7
  6
CONTINUOUS
 10
231.266535
 20
237.455754
 11
231.266535
 21
215.515761
  0
LINE
  8
1
 62
7
  6
CONTINUOUS
 10
243.156531
 20
358.060704
 11
249.356528
 21
358.060704
  0
LINE
  8
1
 62
7
  6
CONTINUOUS
 10
249.356528
 20
358.060704
 11
249.356528
 21
349.660709
  0
LINE
  8
1
 62
7
  6
CONTINUOUS
 10
243.156531
 20
349.660709
 11
243.156531
 21
358.060704
  0
LINE
  8
1
 62
7
  6
CONTINUOUS
 10
242.256529
 20
329.851049
 11
242.256529
 21
324.847671
  0
LINE
  8
1
 62
7
  6
CONTINUOUS
 10
242.256529
 20
336.095711
 11
242.256529
 21
334.362301
  0
LINE
  8
1
 62
7
  6
CONTINUOUS
 10
231.256535
 20
330.746972
 11
247.530602
 21
336.095711
  0
LINE
  8
1
 62
7
  6
CONTINUOUS
 10
231.256535
 20
335.258224
 11
233.804672
 21
336.095711
  0
LINE
  8
1
 62
7
  6
CONTINUOUS
 10
242.256529
 20
319.981050
 11
242.256529
 21
316.675717
  0
LINE
  8
1
 62
7
  6
CONTINUOUS
 10
261.256524
 20
336.095711
 11
231.256535
 21
326.235717
  0
LINE
  8
1
 62
7
  6
CONTINUOUS
 10
261.256524
 20
331.165714
 11
231.256535
 21
321.295718
  0
LINE
  8
1
 62
7
  6
CONTINUOUS
 10
261.256524
 20
326.225714
 11
231.256535
 21
316.365721
  0
LINE
  8
1
 62
7
  6
CONTINUOUS
 10
242.256529
 20
316.675717
 11
246.256531
 21
316.675717
  0
LINE
  8
1
 62
7
  6
CONTINUOUS
 10
261.256524
 20
321.295718
 11
231.256535
 21
311.435725
  0
LINE
  8
1
 62
7
  6
CONTINUOUS
 10
261.256524
 20
316.365721
 11
231.256535
 21
306.505726
  0
LINE
  8
1
 62
7
  6
CONTINUOUS
 10
261.256524
 20
311.435722
 11
231.256535
 21
301.575729
  0
LINE
  8
1
 62
7
  6
CONTINUOUS
 10
261.256524
 20
306.505726
 11
231.256535
 21
296.635729
  0
LINE
  8
1
 62
7
  6
CONTINUOUS
 10
261.256524
 20
301.565726
 11
231.256535
 21
291.705730
  0
LINE
  8
1
 62
7
  6
CONTINUOUS
 10
261.256524
 20
296.635727
 11
235.607442
 21
288.205732
  0
LINE
  8
1
 62
7
  6
CONTINUOUS
 10
250.667487
 20
288.205732
 11
261.256524
 21
291.685995
  0
LINE
  8
1
 62
7
  6
CONTINUOUS
 10
254.056528
 20
271.365739
 11
238.456533
 21
271.365739
  0
LINE
  8
1
 62
7
  6
CONTINUOUS
 10
230.666534
 20
257.865743
 11
238.456533
 21
271.365739
  0
LINE
  8
1
 62
7
  6
CONTINUOUS
 10
223.156540
 20
272.935738
 11
269.356521
 21
272.935738
  0
LINE
  8
1
 62
7
  6
CONTINUOUS
 10
224.256536
 20
274.235740
 11
268.156522
 21
274.235740
  0
LINE
  8
1
 62
7
  6
CONTINUOUS
 10
223.175318
 20
284.205734
 11
269.336517
 21
284.205734
  0
LINE
  8
1
 62
7
  6
CONTINUOUS
 10
231.256535
 20
288.205732
 11
261.256524
 21
288.205732
  0
LINE
  8
1
 62
7
  6
CONTINUOUS
 10
231.256535
 20
336.095711
 11
261.256524
 21
336.095711
  0
LINE
  8
1
 62
7
  6
CONTINUOUS
 10
231.256535
 20
337.695711
 11
261.256524
 21
337.695711
  0
LINE
  8
1
 62
7
  6
CONTINUOUS
 10
250.199384
 20
343.175708
 11
238.213673
 21
343.175708
  0
LINE
  8
1
 62
7
  6
CONTINUOUS
 10
238.213673
 20
343.175708
 11
238.213673
 21
346.175705
  0
LINE
  8
1
 62
7
  6
CONTINUOUS
 10
246.256531
 20
346.175705
 11
226.606535
 21
346.175705
  0
LINE
  8
1
 62
7
  6
CONTINUOUS
 10
225.006535
 20
347.775710
 11
267.506521
 21
347.775710
  0
LINE
  8
1
 62
7
  6
CONTINUOUS
 10
225.006535
 20
347.775710
 11
225.006535
 21
284.205734
  0
LINE
  8
1
 62
7
  6
CONTINUOUS
 10
236.256532
 20
349.815705
 11
256.256526
 21
349.815705
  0
ARC
  8
1
 62
7
  6
CONTINUOUS
 10
236.256532
 20
347.815707
 40
1.999998
 50
90.000000
 51
180.000000
  0
LINE
  8
1
 62
7
  6
CONTINUOUS
 10
225.776537
 20
347.775710
 11
225.856536
 21
348.925707
  0
LINE
  8
1
 62
7
  6
CONTINUOUS
 10
229.266535
 20
350.415704
 11
227.666535
 21
348.815706
  0
ARC
  8
1
 62
7
  6
CONTINUOUS
 10
227.146535
 20
348.825704
 40
1.300000
 50
105.630078
 51
175.588225
  0
LINE
  8
1
 62
7
  6
CONTINUOUS
 10
232.666532
 20
348.935707
 11
232.746534
 21
347.775710
  0
LINE
  8
1
 62
7
  6
CONTINUOUS
 10
229.266535
 20
350.415704
 11
230.866532
 21
348.815706
  0
ARC
  8
1
 62
7
  6
CONTINUOUS
 10
229.266535
 20
341.415712
 40
8.999996
 50
74.117399
 51
105.916557
  0
ARC
  8
1
 62
7
  6
CONTINUOUS
 10
231.366533
 20
348.815706
 40
1.300000
 50
5.247872
 51
73.945512
  0
LINE
  8
1
 62
7
  6
CONTINUOUS
 10
242.256529
 20
337.695711
 11
242.256529
 21
343.175708
  0
LINE
  8
1
 62
7
  6
CONTINUOUS
 10
231.256535
 20
346.175705
 11
231.256535
 21
284.205734
  0
ARC
  8
1
 62
7
  6
CONTINUOUS
 10
225.256535
 20
276.085738
 40
2.100001
 50
172.905941
 51
-118.511011
  0
LINE
  8
1
 62
7
  6
CONTINUOUS
 10
223.176538
 20
284.205734
 11
223.166538
 21
276.345736
  0
LINE
  8
1
 62
7
  6
CONTINUOUS
 10
224.256536
 20
274.235740
 11
224.256536
 21
272.935738
  0
LINE
  8
1
 62
7
  6
CONTINUOUS
 10
226.756535
 20
252.865746
 11
227.256536
 21
252.865746
  0
LINE
  8
1
 62
7
  6
CONTINUOUS
 10
265.756523
 20
252.865746
 11
265.256525
 21
252.865746
  0
LINE
  8
1
 62
7
  6
CONTINUOUS
 10
227.236538
 20
262.865746
 11
226.756535
 21
262.865746
  0
LINE
  8
1
 62
7
  6
CONTINUOUS
 10
224.156536
 20
269.865742
 11
225.256535
 21
269.865742
  0
ARC
  8
1
 62
7
  6
CONTINUOUS
 10
225.256535
 20
267.865744
 40
1.999998
 50
-0.023339
 51
89.988330
  0
LINE
  8
1
 62
7
  6
CONTINUOUS
 10
223.156540
 20
272.935738
 11
223.156540
 21
270.865741
  0
ARC
  8
1
 62
7
  6
CONTINUOUS
 10
224.156536
 20
270.865741
 40
0.999999
 50
-179.989383
 51
-89.977713
  0
LINE
  8
1
 62
7
  6
CONTINUOUS
 10
226.756535
 20
262.865746
 11
226.756535
 21
252.865746
  0
CIRCLE
  8
1
 62
7
  6
CONTINUOUS
 10
246.256531
 20
257.865743
 40
9.319995
  0
LINE
  8
1
 62
7
  6
CONTINUOUS
 10
254.367214
 20
336.095711
 11
246.256531
 21
336.095711
  0
LINE
  8
1
 62
7
  6
CONTINUOUS
 10
250.256532
 20
337.695711
 11
250.256532
 21
343.175708
  0
LINE
  8
1
 62
7
  6
CONTINUOUS
 10
247.199723
 20
316.675717
 11
246.256531
 21
316.675717
  0
LINE
  8
1
 62
7
  6
CONTINUOUS
 10
250.256532
 20
322.610388
 11
250.256532
 21
317.680386
  0
LINE
  8
1
 62
7
  6
CONTINUOUS
 10
250.256532
 20
332.480382
 11
250.256532
 21
327.543047
  0
LINE
  8
1
 62
7
  6
CONTINUOUS
 10
254.299388
 20
343.175708
 11
254.299388
 21
346.175705
  0
LINE
  8
1
 62
7
  6
CONTINUOUS
 10
250.013671
 20
343.175708
 11
254.299388
 21
343.175708
  0
LINE
  8
1
 62
7
  6
CONTINUOUS
 10
258.256527
 20
347.775710
 11
258.256527
 21
347.815707
  0
ARC
  8
1
 62
7
  6
CONTINUOUS
 10
256.256526
 20
347.815707
 40
1.999998
 50
0.000000
 51
90.011670
  0
LINE
  8
1
 62
7
  6
CONTINUOUS
 10
259.846526
 20
348.935707
 11
259.766524
 21
347.775710
  0
LINE
  8
1
 62
7
  6
CONTINUOUS
 10
266.736521
 20
347.775710
 11
266.656522
 21
348.925707
  0
LINE
  8
1
 62
7
  6
CONTINUOUS
 10
263.246524
 20
350.415704
 11
264.846524
 21
348.815706
  0
LINE
  8
1
 62
7
  6
CONTINUOUS
 10
263.246524
 20
350.415704
 11
261.646524
 21
348.815706
  0
ARC
  8
1
 62
7
  6
CONTINUOUS
 10
263.246524
 20
341.415712
 40
8.999996
 50
74.083443
 51
105.882601
  0
ARC
  8
1
 62
7
  6
CONTINUOUS
 10
261.146523
 20
348.815706
 40
1.300000
 50
106.054488
 51
174.752128
  0
ARC
  8
1
 62
7
  6
CONTINUOUS
 10
265.366523
 20
348.825704
 40
1.300000
 50
4.411775
 51
74.369922
  0
LINE
  8
1
 62
7
  6
CONTINUOUS
 10
265.756523
 20
262.865746
 11
265.756523
 21
252.865746
  0
LINE
  8
1
 62
7
  6
CONTINUOUS
 10
265.276521
 20
262.865746
 11
265.756523
 21
262.865746
  0
LINE
  8
1
 62
7
  6
CONTINUOUS
 10
268.356522
 20
269.865742
 11
267.256523
 21
269.865742
  0
ARC
  8
1
 62
7
  6
CONTINUOUS
 10
267.256523
 20
267.865744
 40
1.999998
 50
90.011670
 51
-179.976661
  0
LINE
  8
1
 62
7
  6
CONTINUOUS
 10
269.356521
 20
272.935738
 11
269.356521
 21
270.865741
  0
ARC
  8
1
 62
7
  6
CONTINUOUS
 10
268.356522
 20
270.865741
 40
0.999999
 50
-90.022287
 51
-0.010617
  0
ARC
  8
1
 62
7
  6
CONTINUOUS
 10
267.256523
 20
276.085738
 40
2.100001
 50
-61.488989
 51
7.094059
  0
LINE
  8
1
 62
7
  6
CONTINUOUS
 10
269.336517
 20
284.205734
 11
269.346523
 21
276.345736
  0
LINE
  8
1
 62
7
  6
CONTINUOUS
 10
268.256522
 20
274.235740
 11
268.256522
 21
272.935738
  0
LINE
  8
1
 62
7
  6
CONTINUOUS
 10
261.256524
 20
346.175705
 11
261.256524
 21
284.205734
  0
LINE
  8
1
 62
7
  6
CONTINUOUS
 10
261.846527
 20
257.865743
 11
254.056528
 21
271.365739
  0
LINE
  8
1
 62
7
  6
CONTINUOUS
 10
246.256531
 20
346.175705
 11
265.906523
 21
346.175705
  0
LINE
  8
1
 62
7
  6
CONTINUOUS
 10
267.506521
 20
347.775710
 11
267.506521
 21
284.205734
  0
LINE
  8
1
 62
7
  6
CONTINUOUS
 10
289.416510
 20
236.090752
 11
289.416510
 21
216.940768
  0
LINE
  8
1
 62
7
  6
CONTINUOUS
 10
289.416510
 20
216.940768
 11
288.272266
 21
215.796524
  0
LINE
  8
1
 62
7
  6
CONTINUOUS
 10
281.261978
 20
216.015589
 11
288.272266
 21
215.796524
  0
LINE
  8
1
 62
7
  6
CONTINUOUS
 10
288.272266
 20
237.234996
 11
289.416510
 21
236.090752
  0
LINE
  8
1
 62
7
  6
CONTINUOUS
 10
281.256514
 20
237.015754
 11
288.272266
 21
237.234996
  0
ARC
  8
1
 62
7
  6
CONTINUOUS
 10
234.606535
 20
219.755759
 40
23.349988
 50
163.144424
 51
-163.165658
  0
LINE
  8
1
 62
7
  6
CONTINUOUS
 10
212.256543
 20
226.515760
 11
221.256542
 21
226.515760
  0
ARC
  8
1
 62
7
  6
CONTINUOUS
 10
199.046547
 20
219.775763
 40
23.209989
 50
-16.878916
 51
16.868298
  0
ARC
  8
1
 62
7
  6
CONTINUOUS
 10
234.506535
 20
233.255752
 40
23.249991
 50
163.144424
 51
-163.165658
  0
LINE
  8
1
 62
7
  6
CONTINUOUS
 10
211.256547
 20
213.015762
 11
211.256547
 21
240.015751
  0
ARC
  8
1
 62
7
  6
CONTINUOUS
 10
199.206550
 20
233.225756
 40
23.049988
 50
-16.936212
 51
16.925594
  0
ARC
  8
1
 62
7
  6
CONTINUOUS
 10
258.316525
 20
233.215755
 40
22.939990
 50
-16.993507
 51
16.982890
  0
ARC
  8
1
 62
7
  6
CONTINUOUS
 10
258.146526
 20
219.795759
 40
23.109991
 50
-16.936212
 51
16.925594
  0
LINE
  8
1
 62
7
  6
CONTINUOUS
 10
281.256514
 20
213.015762
 11
281.256514
 21
240.015751
  0
LINE
  8
1
 62
7
  6
CONTINUOUS
 10
280.256515
 20
226.515760
 11
271.256519
 21
226.515760
  0
ARC
  8
1
 62
7
  6
CONTINUOUS
 10
293.296510
 20
219.805762
 40
23.049988
 50
163.087128
 51
-163.051067
  0
ARC
  8
1
 62
7
  6
CONTINUOUS
 10
293.196507
 20
233.215755
 40
22.939990
 50
163.029832
 51
-162.993771
  0
LINE
  8
1
 62
7
  6
CONTINUOUS
 10
224.256539
 20
210.165765
 11
268.256522
 21
210.165765
  0
LINE
  8
1
 62
7
  6
CONTINUOUS
 10
224.256539
 20
210.165765
 11
224.256539
 21
211.515762
  0
LINE
  8
1
 62
7
  6
CONTINUOUS
 10
240.256529
 20
156.575788
 11
246.256531
 21
156.575788
  0
LINE
  8
1
 62
7
  6
CONTINUOUS
 10
269.356521
 20
200.105772
 11
223.156540
 21
200.105772
  0
LINE
  8
1
 62
7
  6
CONTINUOUS
 10
223.156540
 20
200.105772
 11
223.166538
 21
208.255769
  0
LINE
  8
1
 62
7
  6
CONTINUOUS
 10
265.906523
 20
196.725770
 11
226.606535
 21
196.725770
  0
LINE
  8
1
 62
7
  6
CONTINUOUS
 10
226.606535
 20
200.105772
 11
226.606535
 21
196.725770
  0
LINE
  8
1
 62
7
  6
CONTINUOUS
 10
227.756534
 20
196.725770
 11
227.756534
 21
168.845783
  0
LINE
  8
1
 62
7
  6
CONTINUOUS
 10
232.756532
 20
163.845785
 11
259.756526
 21
163.845785
  0
ARC
  8
1
 62
7
  6
CONTINUOUS
 10
232.756532
 20
168.845783
 40
4.999998
 50
-179.989383
 51
-90.000000
  0
LINE
  8
1
 62
7
  6
CONTINUOUS
 10
240.256529
 20
154.555791
 11
252.256530
 21
154.555791
  0
LINE
  8
1
 62
7
  6
CONTINUOUS
 10
240.006531
 20
141.688651
 11
240.006531
 21
152.688645
  0
LINE
  8
1
 62
7
  6
CONTINUOUS
 10
252.506528
 20
152.688645
 11
240.006531
 21
152.688645
  0
LINE
  8
1
 62
7
  6
CONTINUOUS
 10
243.756532
 20
137.688652
 11
240.006531
 21
141.688651
  0
LINE
  8
1
 62
7
  6
CONTINUOUS
 10
243.756532
 20
137.688652
 11
248.756529
 21
137.688652
  0
LINE
  8
1
 62
7
  6
CONTINUOUS
 10
243.756532
 20
131.688655
 11
243.756532
 21
137.688652
  0
LINE
  8
1
 62
7
  6
CONTINUOUS
 10
243.756532
 20
131.688655
 11
248.756529
 21
131.688655
  0
LINE
  8
1
 62
7
  6
CONTINUOUS
 10
243.856532
 20
127.688657
 11
248.656527
 21
127.688657
  0
LINE
  8
1
 62
7
  6
CONTINUOUS
 10
243.856532
 20
127.688657
 11
243.856532
 21
131.688655
  0
LINE
  8
1
 62
7
  6
CONTINUOUS
 10
244.542243
 20
127.688657
 11
244.542243
 21
121.545810
  0
LINE
  8
1
 62
7
  6
CONTINUOUS
 10
246.256531
 20
141.545801
 11
242.185102
 21
141.545801
  0
ARC
  8
1
 62
7
  6
CONTINUOUS
 10
244.756528
 20
177.785778
 40
21.259993
 50
-102.124418
 51
-85.967008
  0
LINE
  8
1
 62
7
  6
CONTINUOUS
 10
240.256529
 20
163.845785
 11
240.256529
 21
156.575788
  0
LINE
  8
1
 62
7
  6
CONTINUOUS
 10
240.256529
 20
156.575788
 11
240.256529
 21
152.755791
  0
ARC
  8
1
 62
7
  6
CONTINUOUS
 10
225.256535
 20
208.065767
 40
2.100001
 50
89.988330
 51
174.786084
  0
ARC
  8
1
 62
7
  6
CONTINUOUS
 10
225.266533
 20
208.165764
 40
2.100001
 50
177.536281
 51
-180.000000
  0
LINE
  8
1
 62
7
  6
CONTINUOUS
 10
223.156540
 20
242.865750
 11
223.156540
 21
244.865751
  0
LINE
  8
1
 62
7
  6
CONTINUOUS
 10
223.156540
 20
242.865750
 11
269.356521
 21
242.865750
  0
LINE
  8
1
 62
7
  6
CONTINUOUS
 10
238.456533
 20
244.365750
 11
230.666534
 21
257.865743
  0
LINE
  8
1
 62
7
  6
CONTINUOUS
 10
254.056528
 20
244.365750
 11
238.456533
 21
244.365750
  0
LINE
  8
1
 62
7
  6
CONTINUOUS
 10
224.156536
 20
245.865750
 11
225.256535
 21
245.865750
  0
ARC
  8
1
 62
7
  6
CONTINUOUS
 10
225.256535
 20
247.865748
 40
1.999998
 50
-89.977713
 51
-0.023339
  0
ARC
  8
1
 62
7
  6
CONTINUOUS
 10
224.156536
 20
244.865751
 40
0.999999
 50
89.988330
 51
180.000000
  0
CIRCLE
  8
1
 62
7
  6
CONTINUOUS
 10
246.256531
 20
257.865743
 40
13.419994
  0
LINE
  8
1
 62
7
  6
CONTINUOUS
 10
246.256531
 20
141.545801
 11
250.327957
 21
141.545801
  0
LINE
  8
1
 62
7
  6
CONTINUOUS
 10
252.506528
 20
141.688651
 11
252.506528
 21
152.688645
  0
LINE
  8
1
 62
7
  6
CONTINUOUS
 10
247.970816
 20
127.688657
 11
247.970816
 21
121.545810
  0
LINE
  8
1
 62
7
  6
CONTINUOUS
 10
248.656527
 20
127.688657
 11
248.656527
 21
131.688655
  0
LINE
  8
1
 62
7
  6
CONTINUOUS
 10
248.756529
 20
131.688655
 11
248.756529
 21
137.688652
  0
LINE
  8
1
 62
7
  6
CONTINUOUS
 10
248.756529
 20
137.688652
 11
252.506528
 21
141.688651
  0
LINE
  8
1
 62
7
  6
CONTINUOUS
 10
246.256531
 20
163.845785
 11
246.256531
 21
156.575788
  0
LINE
  8
1
 62
7
  6
CONTINUOUS
 10
269.356521
 20
200.105772
 11
269.346523
 21
208.255769
  0
ARC
  8
1
 62
7
  6
CONTINUOUS
 10
267.256523
 20
208.065767
 40
2.100001
 50
5.213916
 51
90.011670
  0
ARC
  8
1
 62
7
  6
CONTINUOUS
 10
267.246522
 20
208.165764
 40
2.100001
 50
0.000000
 51
2.463719
  0
LINE
  8
1
 62
7
  6
CONTINUOUS
 10
264.756524
 20
196.725770
 11
264.756524
 21
168.845783
  0
ARC
  8
1
 62
7
  6
CONTINUOUS
 10
259.756526
 20
168.845783
 40
4.999998
 50
-90.022287
 51
-0.010617
  0
LINE
  8
1
 62
7
  6
CONTINUOUS
 10
252.256530
 20
156.575788
 11
252.256530
 21
152.755791
  0
ARC
  8
1
 62
7
  6
CONTINUOUS
 10
247.756530
 20
177.785778
 40
21.259993
 50
-94.032992
 51
-77.875582
  0
LINE
  8
1
 62
7
  6
CONTINUOUS
 10
252.256530
 20
156.575788
 11
246.256531
 21
156.575788
  0
LINE
  8
1
 62
7
  6
CONTINUOUS
 10
252.256530
 20
163.845785
 11
252.256530
 21
156.575788
  0
LINE
  8
1
 62
7
  6
CONTINUOUS
 10
265.906523
 20
200.105772
 11
265.906523
 21
196.725770
  0
LINE
  8
1
 62
7
  6
CONTINUOUS
 10
267.256523
 20
237.455754
 11
267.256523
 21
241.515753
  0
LINE
  8
1
 62
7
  6
CONTINUOUS
 10
261.246526
 20
237.455754
 11
267.256523
 21
237.455754
  0
LINE
  8
1
 62
7
  6
CONTINUOUS
 10
261.246526
 20
238.455753
 11
261.246526
 21
237.455754
  0
LINE
  8
1
 62
7
  6
CONTINUOUS
 10
261.246526
 20
214.515762
 11
261.246526
 21
215.515761
  0
LINE
  8
1
 62
7
  6
CONTINUOUS
 10
267.256523
 20
215.515761
 11
267.256523
 21
211.515762
  0
LINE
  8
1
 62
7
  6
CONTINUOUS
 10
261.246526
 20
215.515761
 11
267.256523
 21
215.515761
  0
LINE
  8
1
 62
7
  6
CONTINUOUS
 10
268.256519
 20
242.865750
 11
268.256519
 21
241.515753
  0
LINE
  8
1
 62
7
  6
CONTINUOUS
 10
268.256519
 20
210.165765
 11
268.256519
 21
211.515762
  0
ARC
  8
1
 62
7
  6
CONTINUOUS
 10
268.756520
 20
211.515762
 40
1.500000
 50
89.977713
 51
179.989383
  0
ARC
  8
1
 62
7
  6
CONTINUOUS
 10
268.756520
 20
241.515753
 40
1.500000
 50
180.000000
 51
-89.988330
  0
LINE
  8
1
 62
7
  6
CONTINUOUS
 10
281.256514
 20
240.015751
 11
268.756520
 21
240.015751
  0
LINE
  8
1
 62
7
  6
CONTINUOUS
 10
281.256514
 20
213.015762
 11
268.756520
 21
213.015762
  0
ARC
  8
1
 62
7
  6
CONTINUOUS
 10
251.256528
 20
228.465756
 40
0.559999
 50
-89.988330
 51
89.977713
  0
LINE
  8
1
 62
7
  6
CONTINUOUS
 10
243.196530
 20
223.915759
 11
243.196530
 21
222.075759
  0
LINE
  8
1
 62
7
  6
CONTINUOUS
 10
243.196530
 20
226.515760
 11
243.196530
 21
224.695756
  0
ARC
  8
1
 62
7
  6
CONTINUOUS
 10
243.476530
 20
226.515760
 40
0.280002
 50
0.023339
 51
179.989383
  0
LINE
  8
1
 62
7
  6
CONTINUOUS
 10
243.756532
 20
222.075759
 11
243.756532
 21
226.515760
  0
ARC
  8
1
 62
7
  6
CONTINUOUS
 10
243.476530
 20
222.075759
 40
0.280002
 50
180.000000
 51
0.023339
  0
ARC
  8
1
 62
7
  6
CONTINUOUS
 10
245.006531
 20
222.915760
 40
0.280002
 50
43.510836
 51
-157.092306
  0
LINE
  8
1
 62
7
  6
CONTINUOUS
 10
245.356529
 20
222.845761
 11
245.206529
 21
223.105757
  0
ARC
  8
1
 62
7
  6
CONTINUOUS
 10
246.116528
 20
223.185761
 40
0.830000
 50
-155.248223
 51
-89.988330
  0
LINE
  8
1
 62
7
  6
CONTINUOUS
 10
246.396530
 20
222.355761
 11
246.116528
 21
222.355761
  0
ARC
  8
1
 62
7
  6
CONTINUOUS
 10
246.396530
 20
223.185761
 40
0.830000
 50
-89.988330
 51
89.977713
  0
LINE
  8
1
 62
7
  6
CONTINUOUS
 10
246.116528
 20
224.015761
 11
246.396530
 21
224.015761
  0
ARC
  8
1
 62
7
  6
CONTINUOUS
 10
246.116528
 20
225.415758
 40
1.389999
 50
89.977713
 51
-89.998948
  0
LINE
  8
1
 62
7
  6
CONTINUOUS
 10
246.396530
 20
226.805758
 11
246.116528
 21
226.805758
  0
ARC
  8
1
 62
7
  6
CONTINUOUS
 10
246.396530
 20
225.415758
 40
1.389999
 50
26.551285
 51
89.977713
  0
LINE
  8
1
 62
7
  6
CONTINUOUS
 10
247.736529
 20
225.845758
 11
247.626529
 21
226.045758
  0
ARC
  8
1
 62
7
  6
CONTINUOUS
 10
247.506530
 20
225.685760
 40
0.280002
 50
-157.081688
 51
33.083004
  0
LINE
  8
1
 62
7
  6
CONTINUOUS
 10
247.156529
 20
225.755756
 11
247.246529
 21
225.575759
  0
ARC
  8
1
 62
7
  6
CONTINUOUS
 10
246.396530
 20
225.415758
 40
0.830000
 50
24.087567
 51
89.977713
  0
LINE
  8
1
 62
7
  6
CONTINUOUS
 10
246.116528
 20
226.245759
 11
246.396530
 21
226.245759
  0
ARC
  8
1
 62
7
  6
CONTINUOUS
 10
246.116528
 20
225.415758
 40
0.830000
 50
89.977713
 51
-89.998948
  0
LINE
  8
1
 62
7
  6
CONTINUOUS
 10
246.396530
 20
224.575758
 11
246.116528
 21
224.575758
  0
ARC
  8
1
 62
7
  6
CONTINUOUS
 10
246.396530
 20
223.185761
 40
1.389999
 50
-89.988330
 51
89.977713
  0
LINE
  8
1
 62
7
  6
CONTINUOUS
 10
246.116528
 20
221.805760
 11
246.396530
 21
221.805760
  0
ARC
  8
1
 62
7
  6
CONTINUOUS
 10
246.116528
 20
223.185761
 40
1.389999
 50
-152.154251
 51
-89.988330
  0
LINE
  8
1
 62
7
  6
CONTINUOUS
 10
244.746530
 20
222.815759
 11
244.886532
 21
222.535760
  0
LINE
  8
1
 62
7
  6
CONTINUOUS
 10
251.256528
 20
226.245759
 11
250.146526
 21
226.245759
  0
LINE
  8
1
 62
7
  6
CONTINUOUS
 10
251.256528
 20
224.575758
 11
251.256528
 21
226.245759
  0
LINE
  8
1
 62
7
  6
CONTINUOUS
 10
250.146526
 20
224.575758
 11
251.256528
 21
224.575758
  0
ARC
  8
1
 62
7
  6
CONTINUOUS
 10
250.146526
 20
225.415758
 40
0.830000
 50
89.977713
 51
-89.998948
  0
LINE
  8
1
 62
7
  6
CONTINUOUS
 10
251.256528
 20
224.015761
 11
250.146526
 21
224.015761
  0
LINE
  8
1
 62
7
  6
CONTINUOUS
 10
251.256528
 20
222.355761
 11
251.256528
 21
224.015761
  0
LINE
  8
1
 62
7
  6
CONTINUOUS
 10
250.146526
 20
222.355761
 11
251.256528
 21
222.355761
  0
ARC
  8
1
 62
7
  6
CONTINUOUS
 10
250.146526
 20
223.185761
 40
0.830000
 50
89.977713
 51
-89.998948
  0
ARC
  8
1
 62
7
  6
CONTINUOUS
 10
250.146526
 20
223.185761
 40
1.389999
 50
126.532420
 51
-89.998948
  0
ARC
  8
1
 62
7
  6
CONTINUOUS
 10
250.146526
 20
225.415758
 40
1.389999
 50
88.774502
 51
-126.782838
  0
LINE
  8
1
 62
7
  6
CONTINUOUS
 10
251.816527
 20
226.805758
 11
250.176525
 21
226.805758
  0
LINE
  8
1
 62
7
  6
CONTINUOUS
 10
251.816527
 20
221.805760
 11
251.816527
 21
226.805758
  0
LINE
  8
1
 62
7
  6
CONTINUOUS
 10
250.146526
 20
221.805760
 11
251.816527
 21
221.805760
  0
LINE
  8
1
 62
7
  6
CONTINUOUS
 10
225.256541
 20
241.515753
 11
225.256541
 21
237.455754
  0
LINE
  8
1
 62
7
  6
CONTINUOUS
 10
231.256537
 20
237.455754
 11
231.256537
 21
238.455753
  0
LINE
  8
1
 62
7
  6
CONTINUOUS
 10
225.256541
 20
237.455754
 11
231.256537
 21
237.455754
  0
LINE
  8
1
 62
7
  6
CONTINUOUS
 10
231.256537
 20
238.455753
 11
261.246526
 21
238.455753
  0
LINE
  8
1
 62
7
  6
CONTINUOUS
 10
231.256537
 20
214.515762
 11
261.246526
 21
214.515762
  0
LINE
  8
1
 62
7
  6
CONTINUOUS
 10
231.256537
 20
215.515761
 11
231.256537
 21
214.515762
  0
LINE
  8
1
 62
7
  6
CONTINUOUS
 10
225.256541
 20
215.515761
 11
231.256537
 21
215.515761
  0
LINE
  8
1
 62
7
  6
CONTINUOUS
 10
225.256541
 20
211.515762
 11
225.256541
 21
215.515761
  0
LINE
  8
1
 62
7
  6
CONTINUOUS
 10
224.256539
 20
242.865750
 11
224.256539
 21
241.515753
  0
LINE
  8
1
 62
7
  6
CONTINUOUS
 10
268.256519
 20
241.515753
 11
224.256539
 21
241.515753
  0
LINE
  8
1
 62
7
  6
CONTINUOUS
 10
268.256519
 20
211.515762
 11
224.256539
 21
211.515762
  0
LINE
  8
1
 62
7
  6
CONTINUOUS
 10
241.176534
 20
221.875758
 11
243.196530
 21
223.915759
  0
LINE
  8
1
 62
7
  6
CONTINUOUS
 10
243.196530
 20
224.695756
 11
241.176534
 21
226.715758
  0
ARC
  8
1
 62
7
  6
CONTINUOUS
 10
236.816531
 20
228.465756
 40
0.559999
 50
134.267351
 51
-134.288585
  0
LINE
  8
1
 62
7
  6
CONTINUOUS
 10
238.656531
 20
231.075755
 11
236.426534
 21
228.855756
  0
LINE
  8
1
 62
7
  6
CONTINUOUS
 10
238.156533
 20
229.025757
 11
251.256528
 21
229.025757
  0
LINE
  8
1
 62
7
  6
CONTINUOUS
 10
239.436534
 20
230.295755
 11
238.156533
 21
229.025757
  0
ARC
  8
1
 62
7
  6
CONTINUOUS
 10
239.046534
 20
230.685758
 40
0.549998
 50
-45.011143
 51
135.012196
  0
LINE
  8
1
 62
7
  6
CONTINUOUS
 10
238.656531
 20
225.855756
 11
236.426534
 21
228.075758
  0
ARC
  8
1
 62
7
  6
CONTINUOUS
 10
239.046534
 20
226.245759
 40
0.549998
 50
-135.022813
 51
44.255681
  0
LINE
  8
1
 62
7
  6
CONTINUOUS
 10
238.156533
 20
227.915757
 11
239.436534
 21
226.625758
  0
LINE
  8
1
 62
7
  6
CONTINUOUS
 10
251.256528
 20
227.915757
 11
238.156533
 21
227.915757
  0
ARC
  8
1
 62
7
  6
CONTINUOUS
 10
240.976531
 20
222.075759
 40
0.280002
 50
133.522505
 51
-45.021761
  0
LINE
  8
1
 62
7
  6
CONTINUOUS
 10
242.816531
 20
224.305759
 11
240.786528
 21
222.275762
  0
LINE
  8
1
 62
7
  6
CONTINUOUS
 10
240.776530
 20
226.325760
 11
242.816531
 21
224.305759
  0
ARC
  8
1
 62
7
  6
CONTINUOUS
 10
240.976531
 20
226.515760
 40
0.280002
 50
46.375625
 51
-136.465825
  0
ARC
  8
1
 62
7
  6
CONTINUOUS
 10
223.756541
 20
211.515762
 40
1.500000
 50
0.023339
 51
89.977713
  0
LINE
  8
1
 62
7
  6
CONTINUOUS
 10
211.256547
 20
213.015762
 11
223.756541
 21
213.015762
  0
ARC
  8
1
 62
7
  6
CONTINUOUS
 10
223.756541
 20
241.515753
 40
1.500000
 50
-89.988330
 51
0.023339
  0
LINE
  8
1
 62
7
  6
CONTINUOUS
 10
211.256547
 20
240.015751
 11
223.756541
 21
240.015751
  0
LINE
  8
1
 62
7
  6
CONTINUOUS
 10
268.356522
 20
245.865750
 11
267.256523
 21
245.865750
  0
ARC
  8
1
 62
7
  6
CONTINUOUS
 10
267.256523
 20
247.865748
 40
1.999998
 50
-179.976661
 51
-90.022287
  0
LINE
  8
1
 62
7
  6
CONTINUOUS
 10
269.356521
 20
242.865750
 11
269.356521
 21
244.865751
  0
ARC
  8
1
 62
7
  6
CONTINUOUS
 10
268.356522
 20
244.865751
 40
0.999999
 50
0.000000
 51
90.011670
  0
LINE
  8
1
 62
7
  6
CONTINUOUS
 10
254.056528
 20
244.365750
 11
261.846527
 21
257.865743
  0
TEXT
  8
1
 62
7
  6
CONTINUOUS
 10
148.432374
 20
258.699076
 40
6.000000
 41
1.000000
  1
出口
  7
KANJI
 50
0.000000
 51
0.000000
  0
TEXT
  8
1
 62
7
  6
CONTINUOUS
 10
137.090544
 20
249.153392
 40
6.000000
 41
1.000000
  1
（メイン側）
  7
KANJI
 50
0.000000
 51
0.000000
  0
TEXT
  8
1
 62
7
  6
CONTINUOUS
 10
164.492709
 20
217.803411
 40
6.000000
 41
1.000000
  1
（バイパス側）
  7
KANJI
 50
0.000000
 51
0.000000
  0
TEXT
  8
1
 62
7
  6
CONTINUOUS
 10
178.198266
 20
227.349093
 40
6.000000
 41
1.000000
  1
出口
  7
KANJI
 50
0.000000
 51
0.000000
  0
LINE
  8
2
 62
5
  6
CONTINUOUS
 10
124.575103
 20
141.745796
 11
124.575103
 21
257.865743
  0
LINE
  8
2
 62
5
  6
CONTINUOUS
 10
126.241769
 20
257.865743
 11
114.795759
 21
257.865743
  0
LINE
  8
2
 62
5
  6
CONTINUOUS
 10
124.575103
 20
141.745796
 11
123.539827
 21
145.609499
  0
LINE
  8
2
 62
5
  6
CONTINUOUS
 10
124.575103
 20
141.745796
 11
125.610380
 21
145.609499
  0
LINE
  8
2
 62
5
  6
CONTINUOUS
 10
124.575103
 20
257.865743
 11
125.610380
 21
254.002040
  0
LINE
  8
2
 62
5
  6
CONTINUOUS
 10
124.575103
 20
257.865743
 11
123.539827
 21
254.002040
  0
TEXT
  8
2
 62
5
  6
CONTINUOUS
 10
124.575103
 20
195.305770
 40
6.000000
 41
1.000000
  1
約h
  7
KANJI
 50
90.000000
 51
0.000000
  0
LINE
  8
2
 62
5
  6
CONTINUOUS
 10
42.741806
 20
175.652926
 11
79.741793
 21
175.652926
  0
LINE
  8
2
 62
5
  6
CONTINUOUS
 10
42.741806
 20
175.652926
 11
46.605509
 21
176.688202
  0
LINE
  8
2
 62
5
  6
CONTINUOUS
 10
42.741806
 20
175.652926
 11
46.605509
 21
174.617650
  0
LINE
  8
2
 62
5
  6
CONTINUOUS
 10
79.741793
 20
175.652926
 11
75.878089
 21
174.617650
  0
LINE
  8
2
 62
5
  6
CONTINUOUS
 10
79.741793
 20
175.652926
 11
75.878089
 21
176.688202
  0
TEXT
  8
2
 62
5
  6
CONTINUOUS
 10
56.408464
 20
176.319592
 40
6.000000
 41
1.000000
  1
φB
  7
KANJI
 50
0.000000
 51
0.000000
  0
LINE
  8
2
 62
5
  6
CONTINUOUS
 10
26.241815
 20
104.921998
 11
96.241783
 21
104.921998
  0
LINE
  8
2
 62
5
  6
CONTINUOUS
 10
26.241815
 20
103.255332
 11
26.241815
 21
243.532420
  0
LINE
  8
2
 62
5
  6
CONTINUOUS
 10
96.241783
 20
103.255332
 11
96.241783
 21
243.532420
  0
LINE
  8
2
 62
5
  6
CONTINUOUS
 10
26.241815
 20
104.921998
 11
30.105519
 21
105.957274
  0
LINE
  8
2
 62
5
  6
CONTINUOUS
 10
26.241815
 20
104.921998
 11
30.105519
 21
103.886722
  0
LINE
  8
2
 62
5
  6
CONTINUOUS
 10
96.241783
 20
104.921998
 11
92.378080
 21
103.886722
  0
LINE
  8
2
 62
5
  6
CONTINUOUS
 10
96.241783
 20
104.921998
 11
92.378080
 21
105.957274
  0
TEXT
  8
2
 62
5
  6
CONTINUOUS
 10
59.408467
 20
105.588665
 40
6.000000
 41
0.500000
  1
L
  7
KANJI
 50
0.000000
 51
0.000000
  0
LINE
  8
2
 62
5
  6
CONTINUOUS
 10
40.241807
 20
381.449026
 11
82.241792
 21
381.449026
  0
LINE
  8
2
 62
5
  6
CONTINUOUS
 10
40.241807
 20
383.115692
 11
40.241807
 21
348.649038
  0
LINE
  8
2
 62
5
  6
CONTINUOUS
 10
82.241792
 20
383.115692
 11
82.241792
 21
348.679039
  0
LINE
  8
2
 62
5
  6
CONTINUOUS
 10
40.241807
 20
381.449026
 11
44.105510
 21
382.484302
  0
LINE
  8
2
 62
5
  6
CONTINUOUS
 10
40.241807
 20
381.449026
 11
44.105510
 21
380.413750
  0
LINE
  8
2
 62
5
  6
CONTINUOUS
 10
82.241792
 20
381.449026
 11
78.378088
 21
380.413750
  0
LINE
  8
2
 62
5
  6
CONTINUOUS
 10
82.241792
 20
381.449026
 11
78.378088
 21
382.484302
  0
TEXT
  8
2
 62
5
  6
CONTINUOUS
 10
56.741799
 20
381.449026
 40
6.000000
 41
1.000000
  1
□C
  7
KANJI
 50
0.000000
 51
0.000000
  0
LINE
  8
2
 62
5
  6
CONTINUOUS
 10
136.241767
 20
141.745796
 11
136.241767
 21
358.115700
  0
LINE
  8
2
 62
5
  6
CONTINUOUS
 10
137.908433
 20
141.745796
 11
64.825126
 21
141.745796
  0
LINE
  8
2
 62
5
  6
CONTINUOUS
 10
137.908433
 20
358.115700
 11
65.175129
 21
358.115700
  0
LINE
  8
2
 62
5
  6
CONTINUOUS
 10
136.241767
 20
141.745796
 11
135.206491
 21
145.609499
  0
LINE
  8
2
 62
5
  6
CONTINUOUS
 10
136.241767
 20
141.745796
 11
137.277044
 21
145.609499
  0
LINE
  8
2
 62
5
  6
CONTINUOUS
 10
136.241767
 20
358.115700
 11
137.277044
 21
354.251997
  0
LINE
  8
2
 62
5
  6
CONTINUOUS
 10
136.241767
 20
358.115700
 11
135.206491
 21
354.251997
  0
TEXT
  8
2
 62
5
  6
CONTINUOUS
 10
136.241767
 20
245.430748
 40
6.000000
 41
1.000000
  1
約I
  7
KANJI
 50
90.000000
 51
0.000000
  0
LINE
  8
2
 62
5
  6
CONTINUOUS
 10
124.575103
 20
257.865743
 11
124.575103
 21
358.115700
  0
LINE
  8
2
 62
5
  6
CONTINUOUS
 10
124.575103
 20
257.865743
 11
123.539827
 21
261.729447
  0
LINE
  8
2
 62
5
  6
CONTINUOUS
 10
124.575103
 20
257.865743
 11
125.610380
 21
261.729447
  0
LINE
  8
2
 62
5
  6
CONTINUOUS
 10
124.575103
 20
358.115700
 11
125.610380
 21
354.251997
  0
LINE
  8
2
 62
5
  6
CONTINUOUS
 10
124.575103
 20
358.115700
 11
123.539827
 21
354.251997
  0
TEXT
  8
2
 62
5
  6
CONTINUOUS
 10
124.575103
 20
303.490722
 40
6.000000
 41
1.000000
  1
約H
  7
KANJI
 50
90.000000
 51
0.000000
  0
LINE
  8
2
 62
5
  6
CONTINUOUS
 10
253.681149
 20
265.290362
 11
280.992502
 21
292.601729
  0
LINE
  8
2
 62
5
  6
CONTINUOUS
 10
280.992502
 20
292.601729
 11
285.887090
 21
292.601729
  0
TEXT
  8
2
 62
5
  6
CONTINUOUS
 10
282.887090
 20
293.268395
 40
6.000000
 41
0.500000
  1
A
  7
KANJI
 50
0.000000
 51
0.000000
  0
LINE
  8
2
 62
5
  6
CONTINUOUS
 10
253.681149
 20
265.290362
 11
255.681148
 21
268.754464
  0
LINE
  8
2
 62
5
  6
CONTINUOUS
 10
253.681149
 20
265.290362
 11
257.145250
 21
267.290363
  0
LINE
  8
2
 62
5
  6
CONTINUOUS
 10
247.970816
 20
124.788657
 11
259.637478
 21
114.869577
  0
LINE
  8
2
 62
5
  6
CONTINUOUS
 10
259.637478
 20
114.869577
 11
331.008279
 21
114.869577
  0
TEXT
  8
2
 62
5
  6
CONTINUOUS
 10
277.008279
 20
115.536244
 40
6.000000
 41
1.000000
  1
キャピラリチュ－ブ
  7
KANJI
 50
0.000000
 51
0.000000
  0
LINE
  8
2
 62
5
  6
CONTINUOUS
 10
247.970816
 20
124.788657
 11
251.585012
 21
123.074719
  0
LINE
  8
2
 62
5
  6
CONTINUOUS
 10
247.970816
 20
124.788657
 11
250.243832
 21
121.497245
  0
LINE
  8
2
 62
5
  6
CONTINUOUS
 10
112.908442
 20
239.365755
 11
112.908442
 21
276.365737
  0
LINE
  8
2
 62
5
  6
CONTINUOUS
 10
114.575108
 20
244.365753
 11
97.075116
 21
244.365753
  0
LINE
  8
2
 62
5
  6
CONTINUOUS
 10
114.575108
 20
271.365739
 11
97.075116
 21
271.365739
  0
LINE
  8
2
 62
5
  6
CONTINUOUS
 10
112.908442
 20
244.365753
 11
113.943718
 21
240.502049
  0
LINE
  8
2
 62
5
  6
CONTINUOUS
 10
112.908442
 20
244.365753
 11
111.873166
 21
240.502049
  0
LINE
  8
2
 62
5
  6
CONTINUOUS
 10
112.908442
 20
271.365739
 11
111.873166
 21
275.229443
  0
LINE
  8
2
 62
5
  6
CONTINUOUS
 10
112.908442
 20
271.365739
 11
113.943718
 21
275.229443
  0
TEXT
  8
2
 62
5
  6
CONTINUOUS
 10
112.908442
 20
246.865746
 40
4.000000
 41
1.000000
  1
二面幅D六角
  7
KANJI
 50
90.000000
 51
0.000000
  0
LINE
  8
2
 62
5
  6
CONTINUOUS
 10
306.083169
 20
208.015764
 11
306.083169
 21
245.015749
  0
LINE
  8
2
 62
5
  6
CONTINUOUS
 10
307.749835
 20
213.015762
 11
282.089847
 21
213.015762
  0
LINE
  8
2
 62
5
  6
CONTINUOUS
 10
307.749835
 20
240.015751
 11
282.089847
 21
240.015751
  0
LINE
  8
2
 62
5
  6
CONTINUOUS
 10
306.083169
 20
213.015762
 11
307.118445
 21
209.152058
  0
LINE
  8
2
 62
5
  6
CONTINUOUS
 10
306.083169
 20
213.015762
 11
305.047893
 21
209.152058
  0
LINE
  8
2
 62
5
  6
CONTINUOUS
 10
306.083169
 20
240.015751
 11
305.047893
 21
243.879454
  0
LINE
  8
2
 62
5
  6
CONTINUOUS
 10
306.083169
 20
240.015751
 11
307.118445
 21
243.879454
  0
TEXT
  8
2
 62
5
  6
CONTINUOUS
 10
306.083169
 20
215.515756
 40
4.000000
 41
1.000000
  1
二面幅D六角
  7
KANJI
 50
90.000000
 51
0.000000
  0
LINE
  8
2
 62
5
  6
DASHDOT
 10
249.589876
 20
94.225445
 11
368.636767
 21
94.225445
  0
ARC
  8
2
 62
5
  6
DASHDOT
 10
368.636785
 20
102.558775
 40
8.333330
 50
-90.000000
 51
0.000000
  0
LINE
  8
2
 62
5
  6
DASHDOT
 10
376.970102
 20
307.646470
 11
376.970102
 21
102.558061
  0
LINE
  8
2
 62
5
  6
DASHDOT
 10
376.970102
 20
319.280722
 11
376.970102
 21
419.451717
  0
ARC
  8
1
 62
7
  6
CONTINUOUS
 10
375.774091
 20
248.742612
 40
1.674417
 50
-135.584657
 51
-44.415343
  0
ARC
  8
1
 62
7
  6
CONTINUOUS
 10
375.774091
 20
246.398912
 40
1.674417
 50
44.415343
 51
135.584657
  0
ARC
  8
1
 62
7
  6
CONTINUOUS
 10
378.166116
 20
248.742612
 40
1.674417
 50
-135.584657
 51
-44.415343
  0
ARC
  8
1
 62
7
  6
CONTINUOUS
 10
381.716783
 20
337.323251
 40
6.645342
 50
44.415296
 51
135.584704
  0
ARC
  8
1
 62
7
  6
CONTINUOUS
 10
372.223435
 20
346.624792
 40
6.645342
 50
-135.584723
 51
-44.415277
  0
ARC
  8
1
 62
7
  6
CONTINUOUS
 10
372.223431
 20
337.323247
 40
6.645342
 50
44.415296
 51
135.584666
  0
ARC
  8
1
 62
7
  6
CONTINUOUS
 10
381.716773
 20
345.695338
 40
6.645342
 50
44.415277
 51
135.584723
  0
ARC
  8
1
 62
7
  6
CONTINUOUS
 10
381.716776
 20
354.996882
 40
6.645342
 50
-135.584704
 51
-44.415334
  0
ARC
  8
1
 62
7
  6
CONTINUOUS
 10
372.223424
 20
354.996878
 40
6.645342
 50
-135.584704
 51
-44.415296
  0
LINE
  8
1
 62
7
  6
CONTINUOUS
 10
371.662798
 20
375.155819
 11
382.022263
 21
375.155819
  0
LINE
  8
1
 62
7
  6
CONTINUOUS
 10
386.463454
 20
375.155816
 11
386.463451
 21
350.346108
  0
LINE
  8
1
 62
7
  6
CONTINUOUS
 10
380.956811
 20
384.693600
 11
386.463454
 21
375.155816
  0
LINE
  8
1
 62
7
  6
CONTINUOUS
 10
367.476753
 20
375.155819
 11
367.476760
 21
350.346108
  0
LINE
  8
1
 62
7
  6
CONTINUOUS
 10
372.983393
 20
384.693600
 11
367.476753
 21
375.155819
  0
LINE
  8
1
 62
7
  6
CONTINUOUS
 10
372.983393
 20
384.693600
 11
372.983393
 21
388.680308
  0
LINE
  8
1
 62
7
  6
CONTINUOUS
 10
380.956811
 20
384.693600
 11
372.983393
 21
384.693600
  0
LINE
  8
1
 62
7
  6
CONTINUOUS
 10
380.956811
 20
388.680308
 11
380.956811
 21
384.693600
  0
LINE
  8
1
 62
7
  6
CONTINUOUS
 10
372.983393
 20
388.680308
 11
380.956811
 21
388.680308
  0
LINE
  8
1
 62
7
  6
CONTINUOUS
 10
379.362127
 20
410.248405
 11
379.362127
 21
388.680308
  0
LINE
  8
1
 62
7
  6
CONTINUOUS
 10
378.200003
 20
407.989933
 11
378.195323
 21
408.256264
  0
LINE
  8
1
 62
7
  6
CONTINUOUS
 10
378.195323
 20
408.256264
 11
378.181318
 21
408.520569
  0
LINE
  8
1
 62
7
  6
CONTINUOUS
 10
378.181318
 20
408.520569
 11
378.158095
 21
408.780835
  0
LINE
  8
1
 62
7
  6
CONTINUOUS
 10
378.158095
 20
408.780835
 11
378.125831
 21
409.035081
  0
LINE
  8
1
 62
7
  6
CONTINUOUS
 10
378.125831
 20
409.035081
 11
378.084771
 21
409.281374
  0
LINE
  8
1
 62
7
  6
CONTINUOUS
 10
378.084771
 20
409.281374
 11
378.035228
 21
409.517838
  0
LINE
  8
1
 62
7
  6
CONTINUOUS
 10
378.035228
 20
409.517838
 11
377.977578
 21
409.742674
  0
LINE
  8
1
 62
7
  6
CONTINUOUS
 10
377.977578
 20
409.742674
 11
377.912261
 21
409.954170
  0
LINE
  8
1
 62
7
  6
CONTINUOUS
 10
377.912261
 20
409.954170
 11
377.839773
 21
410.150717
  0
LINE
  8
1
 62
7
  6
CONTINUOUS
 10
377.839773
 20
410.150717
 11
377.760667
 21
410.330819
  0
LINE
  8
1
 62
7
  6
CONTINUOUS
 10
377.760667
 20
410.330819
 11
377.675544
 21
410.493106
  0
LINE
  8
1
 62
7
  6
CONTINUOUS
 10
377.675544
 20
410.493106
 11
377.585052
 21
410.636342
  0
LINE
  8
1
 62
7
  6
CONTINUOUS
 10
377.585052
 20
410.636342
 11
377.489881
 21
410.759437
  0
LINE
  8
1
 62
7
  6
CONTINUOUS
 10
377.489881
 20
410.759437
 11
377.390753
 21
410.861455
  0
LINE
  8
1
 62
7
  6
CONTINUOUS
 10
377.390753
 20
410.861455
 11
377.288424
 21
410.941619
  0
LINE
  8
1
 62
7
  6
CONTINUOUS
 10
377.288424
 20
410.941619
 11
377.183672
 21
410.999318
  0
LINE
  8
1
 62
7
  6
CONTINUOUS
 10
377.183672
 20
410.999318
 11
377.077295
 21
411.034115
  0
LINE
  8
1
 62
7
  6
CONTINUOUS
 10
377.077295
 20
411.034115
 11
376.970102
 21
411.045743
  0
LINE
  8
1
 62
7
  6
CONTINUOUS
 10
376.970102
 20
411.045743
 11
376.862909
 21
411.034115
  0
LINE
  8
1
 62
7
  6
CONTINUOUS
 10
376.862909
 20
411.034115
 11
376.756532
 21
410.999318
  0
LINE
  8
1
 62
7
  6
CONTINUOUS
 10
376.756532
 20
410.999318
 11
376.651780
 21
410.941619
  0
LINE
  8
1
 62
7
  6
CONTINUOUS
 10
376.651780
 20
410.941619
 11
376.549451
 21
410.861455
  0
LINE
  8
1
 62
7
  6
CONTINUOUS
 10
376.549451
 20
410.861455
 11
376.450323
 21
410.759437
  0
LINE
  8
1
 62
7
  6
CONTINUOUS
 10
376.450323
 20
410.759437
 11
376.355151
 21
410.636342
  0
LINE
  8
1
 62
7
  6
CONTINUOUS
 10
376.355151
 20
410.636342
 11
376.264659
 21
410.493106
  0
LINE
  8
1
 62
7
  6
CONTINUOUS
 10
376.264659
 20
410.493106
 11
376.179537
 21
410.330819
  0
LINE
  8
1
 62
7
  6
CONTINUOUS
 10
376.179537
 20
410.330819
 11
376.100430
 21
410.150717
  0
LINE
  8
1
 62
7
  6
CONTINUOUS
 10
376.100430
 20
410.150717
 11
376.027943
 21
409.954170
  0
LINE
  8
1
 62
7
  6
CONTINUOUS
 10
376.027943
 20
409.954170
 11
375.962626
 21
409.742674
  0
LINE
  8
1
 62
7
  6
CONTINUOUS
 10
375.962626
 20
409.742674
 11
375.904976
 21
409.517838
  0
LINE
  8
1
 62
7
  6
CONTINUOUS
 10
375.904976
 20
409.517838
 11
375.855433
 21
409.281374
  0
LINE
  8
1
 62
7
  6
CONTINUOUS
 10
375.855433
 20
409.281374
 11
375.814373
 21
409.035081
  0
LINE
  8
1
 62
7
  6
CONTINUOUS
 10
375.814373
 20
409.035081
 11
375.782108
 21
408.780835
  0
LINE
  8
1
 62
7
  6
CONTINUOUS
 10
375.782108
 20
408.780835
 11
375.758886
 21
408.520569
  0
LINE
  8
1
 62
7
  6
CONTINUOUS
 10
375.758886
 20
408.520569
 11
375.744881
 21
408.256264
  0
LINE
  8
1
 62
7
  6
CONTINUOUS
 10
375.744881
 20
408.256264
 11
375.740201
 21
407.989933
  0
LINE
  8
1
 62
7
  6
CONTINUOUS
 10
375.740201
 20
407.989933
 11
375.744881
 21
407.723601
  0
LINE
  8
1
 62
7
  6
CONTINUOUS
 10
375.744881
 20
407.723601
 11
375.758886
 21
407.459297
  0
LINE
  8
1
 62
7
  6
CONTINUOUS
 10
375.758886
 20
407.459297
 11
375.782108
 21
407.199031
  0
LINE
  8
1
 62
7
  6
CONTINUOUS
 10
375.782108
 20
407.199031
 11
375.814373
 21
406.944784
  0
LINE
  8
1
 62
7
  6
CONTINUOUS
 10
375.814373
 20
406.944784
 11
375.855433
 21
406.698491
  0
LINE
  8
1
 62
7
  6
CONTINUOUS
 10
375.855433
 20
406.698491
 11
375.904976
 21
406.462028
  0
LINE
  8
1
 62
7
  6
CONTINUOUS
 10
375.904976
 20
406.462028
 11
375.962626
 21
406.237192
  0
LINE
  8
1
 62
7
  6
CONTINUOUS
 10
375.962626
 20
406.237192
 11
376.027943
 21
406.025696
  0
LINE
  8
1
 62
7
  6
CONTINUOUS
 10
376.027943
 20
406.025696
 11
376.100430
 21
405.829149
  0
LINE
  8
1
 62
7
  6
CONTINUOUS
 10
376.100430
 20
405.829149
 11
376.179537
 21
405.649046
  0
LINE
  8
1
 62
7
  6
CONTINUOUS
 10
376.179537
 20
405.649046
 11
376.264659
 21
405.486759
  0
LINE
  8
1
 62
7
  6
CONTINUOUS
 10
376.264659
 20
405.486759
 11
376.355151
 21
405.343523
  0
LINE
  8
1
 62
7
  6
CONTINUOUS
 10
376.355151
 20
405.343523
 11
376.450323
 21
405.220428
  0
LINE
  8
1
 62
7
  6
CONTINUOUS
 10
376.450323
 20
405.220428
 11
376.549451
 21
405.118410
  0
LINE
  8
1
 62
7
  6
CONTINUOUS
 10
376.549451
 20
405.118410
 11
376.651780
 21
405.038247
  0
LINE
  8
1
 62
7
  6
CONTINUOUS
 10
376.651780
 20
405.038247
 11
376.756532
 21
404.980547
  0
LINE
  8
1
 62
7
  6
CONTINUOUS
 10
376.756532
 20
404.980547
 11
376.862909
 21
404.945751
  0
LINE
  8
1
 62
7
  6
CONTINUOUS
 10
376.862909
 20
404.945751
 11
376.970102
 21
404.934122
  0
LINE
  8
1
 62
7
  6
CONTINUOUS
 10
376.970102
 20
404.934122
 11
377.077295
 21
404.945751
  0
LINE
  8
1
 62
7
  6
CONTINUOUS
 10
377.077295
 20
404.945751
 11
377.183672
 21
404.980547
  0
LINE
  8
1
 62
7
  6
CONTINUOUS
 10
377.183672
 20
404.980547
 11
377.288424
 21
405.038247
  0
LINE
  8
1
 62
7
  6
CONTINUOUS
 10
377.288424
 20
405.038247
 11
377.390753
 21
405.118410
  0
LINE
  8
1
 62
7
  6
CONTINUOUS
 10
377.390753
 20
405.118410
 11
377.489881
 21
405.220428
  0
LINE
  8
1
 62
7
  6
CONTINUOUS
 10
377.489881
 20
405.220428
 11
377.585052
 21
405.343523
  0
LINE
  8
1
 62
7
  6
CONTINUOUS
 10
377.585052
 20
405.343523
 11
377.675544
 21
405.486759
  0
LINE
  8
1
 62
7
  6
CONTINUOUS
 10
377.675544
 20
405.486759
 11
377.760667
 21
405.649046
  0
LINE
  8
1
 62
7
  6
CONTINUOUS
 10
377.760667
 20
405.649046
 11
377.839773
 21
405.829149
  0
LINE
  8
1
 62
7
  6
CONTINUOUS
 10
377.839773
 20
405.829149
 11
377.912261
 21
406.025696
  0
LINE
  8
1
 62
7
  6
CONTINUOUS
 10
377.912261
 20
406.025696
 11
377.977578
 21
406.237192
  0
LINE
  8
1
 62
7
  6
CONTINUOUS
 10
377.977578
 20
406.237192
 11
378.035228
 21
406.462028
  0
LINE
  8
1
 62
7
  6
CONTINUOUS
 10
378.035228
 20
406.462028
 11
378.084771
 21
406.698491
  0
LINE
  8
1
 62
7
  6
CONTINUOUS
 10
378.084771
 20
406.698491
 11
378.125831
 21
406.944784
  0
LINE
  8
1
 62
7
  6
CONTINUOUS
 10
378.125831
 20
406.944784
 11
378.158095
 21
407.199031
  0
LINE
  8
1
 62
7
  6
CONTINUOUS
 10
378.158095
 20
407.199031
 11
378.181318
 21
407.459297
  0
LINE
  8
1
 62
7
  6
CONTINUOUS
 10
378.181318
 20
407.459297
 11
378.195323
 21
407.723601
  0
LINE
  8
1
 62
7
  6
CONTINUOUS
 10
378.195323
 20
407.723601
 11
378.200003
 21
407.989933
  0
LINE
  8
1
 62
7
  6
CONTINUOUS
 10
374.578080
 20
410.248398
 11
374.578080
 21
388.680308
  0
ARC
  8
1
 62
7
  6
CONTINUOUS
 10
376.970102
 20
410.076806
 40
2.398171
 50
4.103011
 51
175.896989
  0
LINE
  8
1
 62
7
  6
CONTINUOUS
 10
379.362127
 20
247.570762
 11
379.362127
 21
282.683699
  0
LINE
  8
1
 62
7
  6
CONTINUOUS
 10
374.578080
 20
247.570762
 11
374.578080
 21
282.683699
  0
LINE
  8
1
 62
7
  6
CONTINUOUS
 10
386.463454
 20
296.208188
 11
386.463447
 21
341.974025
  0
LINE
  8
1
 62
7
  6
CONTINUOUS
 10
367.476753
 20
296.208184
 11
367.476768
 21
341.974029
  0
LINE
  8
1
 62
7
  6
CONTINUOUS
 10
380.956811
 20
286.670408
 11
386.463454
 21
296.208188
  0
LINE
  8
1
 62
7
  6
CONTINUOUS
 10
380.956811
 20
282.683699
 11
380.956811
 21
286.670408
  0
LINE
  8
1
 62
7
  6
CONTINUOUS
 10
371.662798
 20
296.208184
 11
382.022263
 21
296.208184
  0
LINE
  8
1
 62
7
  6
CONTINUOUS
 10
372.983393
 20
286.670408
 11
367.476753
 21
296.208184
  0
LINE
  8
1
 62
7
  6
CONTINUOUS
 10
372.983393
 20
286.670408
 11
372.983393
 21
282.683699
  0
LINE
  8
1
 62
7
  6
CONTINUOUS
 10
380.956811
 20
286.670408
 11
372.983393
 21
286.670408
  0
LINE
  8
1
 62
7
  6
CONTINUOUS
 10
372.983393
 20
282.683699
 11
380.956811
 21
282.683699
  0
LINE
  8
2
 62
5
  6
CONTINUOUS
 10
406.396984
 20
388.680308
 11
406.396984
 21
412.474977
  0
LINE
  8
2
 62
5
  6
CONTINUOUS
 10
408.722564
 20
388.680308
 11
382.119601
 21
388.680308
  0
LINE
  8
2
 62
5
  6
CONTINUOUS
 10
408.722564
 20
412.474977
 11
378.132892
 21
412.474977
  0
LINE
  8
2
 62
5
  6
CONTINUOUS
 10
406.396984
 20
388.680308
 11
405.361708
 21
392.544012
  0
LINE
  8
2
 62
5
  6
CONTINUOUS
 10
406.396984
 20
388.680308
 11
407.432260
 21
392.544012
  0
LINE
  8
2
 62
5
  6
CONTINUOUS
 10
406.396984
 20
412.474977
 11
407.432260
 21
408.611274
  0
LINE
  8
2
 62
5
  6
CONTINUOUS
 10
406.396984
 20
412.474977
 11
405.361708
 21
408.611274
  0
TEXT
  8
2
 62
5
  6
CONTINUOUS
 10
406.396984
 20
394.577643
 40
6.000000
 41
0.500000
  1
(16)
  7
KANJI
 50
90.000000
 51
0.000000
  0
LINE
  8
2
 62
5
  6
CONTINUOUS
 10
406.396995
 20
282.683699
 11
406.396995
 21
388.680308
  0
LINE
  8
2
 62
5
  6
CONTINUOUS
 10
408.722575
 20
282.683699
 11
382.119601
 21
282.683699
  0
LINE
  8
2
 62
5
  6
CONTINUOUS
 10
406.396995
 20
282.683699
 11
405.361719
 21
286.547402
  0
LINE
  8
2
 62
5
  6
CONTINUOUS
 10
406.396995
 20
282.683699
 11
407.432271
 21
286.547402
  0
LINE
  8
2
 62
5
  6
CONTINUOUS
 10
406.396995
 20
388.680308
 11
407.432271
 21
384.816605
  0
LINE
  8
2
 62
5
  6
CONTINUOUS
 10
406.396995
 20
388.680308
 11
405.361719
 21
384.816605
  0
TEXT
  8
2
 62
5
  6
CONTINUOUS
 10
406.396995
 20
334.182004
 40
6.000000
 41
0.500000
  1
F
  7
KANJI
 50
90.000000
 51
0.000000
  0
LINE
  8
2
 62
5
  6
CONTINUOUS
 10
367.476757
 20
309.944803
 11
386.463451
 21
309.944803
  0
LINE
  8
2
 62
5
  6
CONTINUOUS
 10
367.476757
 20
309.944803
 11
371.340460
 21
310.980080
  0
LINE
  8
2
 62
5
  6
CONTINUOUS
 10
367.476757
 20
309.944803
 11
371.340460
 21
308.909527
  0
LINE
  8
2
 62
5
  6
CONTINUOUS
 10
386.463451
 20
309.944803
 11
382.599747
 21
308.909527
  0
LINE
  8
2
 62
5
  6
CONTINUOUS
 10
386.463451
 20
309.944803
 11
382.599747
 21
310.980080
  0
TEXT
  8
2
 62
5
  6
CONTINUOUS
 10
370.970104
 20
309.944803
 40
6.000000
 41
1.000000
  1
φ19
  7
KANJI
 50
0.000000
 51
0.000000
  0
ENDSEC
  0
EOF
