  0
SECTION
  2
HEADER
  9
$ACADVER
  1
AC1003
  9
$INSBASE
 10
0.000000
 20
0.000000
  9
$EXTMIN
 10
0.000000
 20
0.000000
  9
$EXTMAX
 10
514.000000
 20
364.000000
  9
$LIMMIN
 10
0.000000
 20
0.000000
  9
$LIMMAX
 10
514.000000
 20
364.000000
  9
$VIEWCTR
 10
257.000000
 20
182.000000
  9
$VIEWSIZE
 40
364.000000
  9
$PEXTMIN
 10
0.000000
 20
0.000000
 30
0.000000
  9
$PEXTMAX
 10
257.000000
 20
182.000000
 30
0.000000
  9
$SNAPMODE
 70
     0
  9
$SNAPUNIT
 10
1.000000
 20
1.000000
  9
$SNAPBASE
 10
0.000000
 20
0.000000
  9
$SNAPANG
 50
0.000000
  9
$SNAPISOPAIR
 70
     0
  9
$SNAPSTYLE
 70
     0
  9
$GRIDMODE
 70
     0
  9
$GRIDUNIT
 10
0.000000
 20
0.000000
  9
$ORTHOMODE
 70
     0
  9
$REGENMODE
 70
     1
  9
$FILLMODE
 70
     1
  9
$QTEXTMODE
 70
     0
  9
$DRAGMODE
 70
     2
  9
$LTSCALE
 40
0.500000
  9
$OSMODE
 70
     0
  9
$ATTMODE
 70
     1
  9
$TEXTSIZE
 40
10.000000
  9
$TRACEWID
 40
0.050000
  9
$TEXTSTYLE
  7
STANDARD
  9
$CLAYER
  8
0
  9
$CELTYPE
  6
BYLAYER
  9
$CECOLOR
 62
   256
  9
$DIMSCALE
 40
1.000000
  9
$DIMASZ
 40
1.000000
  9
$DIMEXO
 40
0.000000
  9
$DIMDLI
 40
0.500000
  9
$DIMRND
 40
0.000000
  9
$DIMDLE
 40
0.000000
  9
$DIMEXE
 40
0.000000
  9
$DIMTP
 40
0.000000
  9
$DIMTM
 40
0.000000
  9
$DIMTXT
 40
4.000000
  9
$DIMCEN
 40
0.000000
  9
$DIMTSZ
 40
0.000000
  9
$DIMTOL
 70
     0
  9
$DIMLIM
 70
     0
  9
$DIMTIH
 70
     1
  9
$DIMTOH
 70
     1
  9
$DIMSE1
 70
     0
  9
$DIMSE2
 70
     0
  9
$DIMTAD
 70
     0
  9
$DIMZIN
 70
     0
  9
$DIMBLK
  1

  9
$DIMASO
 70
     0
  9
$DIMSHO
 70
     0
  9
$DIMPOST
  1

  9
$DIMAPOST
  1

  9
$DIMALT
 70
     0
  9
$DIMALTD
 70
     0
  9
$DIMALTF
 40
25.400000
  9
$DIMLFAC
 40
1.000000
  9
$DIMTOFL
 70
     0
  9
$DIMTVP
 40
0.000000
  9
$DIMTIX
 70
     0
  9
$DIMSOXD
 70
     0
  9
$DIMSAH
 70
     0
  9
$DIMBLKL
  1

  9
$DIMBLKR
  1

  9
$LUNITS
 70
     2
  9
$LUPREC
 70
     2
  9
$AXISMODE
 70
     0
  9
$AXISUNIT
 10
1.000000
 20
1.000000
  9
$SKETCHINC
 40
0.000000
  9
$FILLETRAD
 40
0.000000
  9
$AUNITS
 70
     1
  9
$AUPREC
 70
     2
  9
$MENU
  1
ACAD
  9
$ELEVATION
 40
0.000000
  9
$THICKNESS
 40
0.000000
  9
$VIEWDIR
 10
0.000000
 20
0.000000
 30
1.000000
  9
$LIMCHECK
 70
     1
  9
$BLIPMODE
 70
     1
  9
$CHAMFERA
 40
0.000000
  9
$CHAMFERB
 40
0.000000
  9
$FASTZOOM
 70
     1
  9
$SKPOLY
 70
     0
  9
$TDCREATE
 40
0.000000
  9
$TDUPDATE
 40
0.000000
  9
$TDINDWG
 40
0.000000
  9
$TDUSRTIMER
 40
0.000000
  9
$USRTIMER
 70
     1
  9
$ANGBASE
 50
0.000000
  9
$ANGDIR
 70
     0
  9
$PDMODE
 70
     0
  9
$PDSIZE
 40
0.000000
  9
$PLINEWID
 40
0.000000
  9
$COORDS
 70
     2
  9
$USERI1
 70
     0
  9
$USERI2
 70
     0
  9
$USERI3
 70
     0
  9
$USERI4
 70
     0
  9
$USERI5
 70
     0
  9
$USERR1
 40
0.000000
  9
$USERR2
 40
0.000000
  9
$USERR3
 40
0.000000
  9
$USERR4
 40
0.000000
  9
$USERR5
 40
0.000000
  0
ENDSEC
  0
SECTION
  2
TABLES
  0
TABLE
  2
LTYPE
 70
     5
  0
LTYPE
  2
CONTINUOUS
 70
    64
  3
Solid line
 72
    65
 73
     0
 40
0.0
  0
LTYPE
  2
HIDDEN
 70
    64
  3
------------------------
 72
    65
 73
     2
 40
12.6
 49
8.4
 49
-4.2
  0
LTYPE
  2
DOT
 70
    64
  3
････････････････････････
 72
    65
 73
     2
 40
8.0
 49
6.0
 49
-2.0
  0
LTYPE
  2
DASHDOT
 70
    64
  3
--･--･--･--･--･--･--･--
 72
    65
 73
     4
 40
50.5
 49
30.0
 49
-9.0
 49
2.5
 49
-9.0
  0
LTYPE
  2
DIVIDE
 70
    64
  3
--･･--･･--･･--･･--･･--
 72
    65
 73
     6
 40
58.0
 49
30.0
 49
-9.0
 49
2.5
 49
-5.0
 49
2.5
 49
-9.0
  0
LTYPE
  2
ACAD_ISO06W100
 70
    64
  3
____ ... ____ ... ____
 72
    65
 73
     8
 40
37.5
 49
24.0
 49
-3.0
 49
0.5
 49
-3.0
 49
0.5
 49
-3.0
 49
0.5
 49
-3.0
  0
LTYPE
  2
ACAD_ISO14W100
 70
    64
  3
__ . . . __ . . . __ . . . 
 72
    65
 73
     8
 40
25.5
 49
12.0
 49
-3.0
 49
0.5
 49
-3.0
 49
0.5
 49
-3.0
 49
0.5
 49
-3.0
  0
ENDTAB
  0
TABLE
  2
LAYER
 70
2
  0
LAYER
  2
1
 70
64
 62
7
  6
CONTINUOUS
  0
LAYER
  2
2
 70
64
 62
7
  6
CONTINUOUS
  0
ENDTAB
  0
TABLE
  2
STYLE
 70
     2
  0
STYLE
  2
STANDARD
 70
    64
 40
0.0
 41
1.0
 50
0.0
 71
     0
 42
0.2
  3
TXT
  4

  0
STYLE
  2
KANJI
 70
    64
 40
0.0
 41
1.0
 50
0.0
 71
     0
 42
0.2
  3
TXT
  4
BIGFONT
  0
ENDTAB
  0
TABLE
  2
VIEW
 70
     0
  0
ENDTAB
  0
ENDSEC
  0
SECTION
  2
BLOCKS
  0
ENDSEC
  0
SECTION
  2
ENTITIES
  0
LINE
  8
1
 62
7
  6
CONTINUOUS
 10
79.006002
 20
192.958792
 11
78.506009
 21
192.958792
  0
LINE
  8
1
 62
7
  6
CONTINUOUS
 10
146.006000
 20
192.958792
 11
146.506002
 21
192.958792
  0
LINE
  8
1
 62
7
  6
CONTINUOUS
 10
104.856001
 20
66.531794
 11
112.506000
 21
66.531794
  0
LINE
  8
2
 62
7
  6
DASHDOT
 10
121.649440
 20
151.531795
 11
189.915199
 21
151.531795
  0
LINE
  8
1
 62
7
  6
CONTINUOUS
 10
89.591487
 20
95.220755
 11
92.854127
 21
89.569696
  0
LINE
  8
1
 62
7
  6
CONTINUOUS
 10
92.854127
 20
89.569696
 11
91.194928
 21
89.569696
  0
LINE
  8
1
 62
7
  6
CONTINUOUS
 10
91.194928
 20
89.569696
 11
91.194928
 21
82.011818
  0
LINE
  8
1
 62
7
  6
CONTINUOUS
 10
91.194928
 20
82.011818
 11
89.591487
 21
82.011818
  0
LINE
  8
1
 62
7
  6
CONTINUOUS
 10
89.591487
 20
95.220755
 11
86.328848
 21
89.569696
  0
LINE
  8
1
 62
7
  6
CONTINUOUS
 10
86.328848
 20
89.569696
 11
87.988045
 21
89.569696
  0
LINE
  8
1
 62
7
  6
CONTINUOUS
 10
87.988045
 20
89.569696
 11
87.988045
 21
82.011818
  0
LINE
  8
1
 62
7
  6
CONTINUOUS
 10
87.988045
 20
82.011818
 11
89.591487
 21
82.011818
  0
LINE
  8
2
 62
7
  6
DASHDOT
 10
112.506000
 20
266.018999
 11
112.506000
 21
63.733698
  0
LINE
  8
1
 62
7
  6
CONTINUOUS
 10
91.035830
 20
82.011818
 11
91.194928
 21
82.170916
  0
LINE
  8
1
 62
7
  6
CONTINUOUS
 10
90.717633
 20
82.011818
 11
91.194928
 21
82.489113
  0
LINE
  8
1
 62
7
  6
CONTINUOUS
 10
90.399434
 20
82.011818
 11
91.194928
 21
82.807312
  0
LINE
  8
1
 62
7
  6
CONTINUOUS
 10
90.081235
 20
82.011818
 11
91.194928
 21
83.125511
  0
LINE
  8
1
 62
7
  6
CONTINUOUS
 10
89.763038
 20
82.011818
 11
91.194928
 21
83.443708
  0
LINE
  8
1
 62
7
  6
CONTINUOUS
 10
89.444839
 20
82.011818
 11
91.194928
 21
83.761907
  0
LINE
  8
1
 62
7
  6
CONTINUOUS
 10
89.126642
 20
82.011818
 11
91.194928
 21
84.080104
  0
LINE
  8
1
 62
7
  6
CONTINUOUS
 10
88.808443
 20
82.011818
 11
91.194928
 21
84.398303
  0
LINE
  8
1
 62
7
  6
CONTINUOUS
 10
88.490246
 20
82.011818
 11
91.194928
 21
84.716500
  0
LINE
  8
1
 62
7
  6
CONTINUOUS
 10
88.172047
 20
82.011818
 11
91.194928
 21
85.034699
  0
LINE
  8
1
 62
7
  6
CONTINUOUS
 10
87.988045
 20
82.146014
 11
91.194928
 21
85.352897
  0
LINE
  8
1
 62
7
  6
CONTINUOUS
 10
87.988045
 20
82.464211
 11
91.194928
 21
85.671094
  0
LINE
  8
1
 62
7
  6
CONTINUOUS
 10
87.988045
 20
82.782408
 11
91.194928
 21
85.989292
  0
LINE
  8
1
 62
7
  6
CONTINUOUS
 10
87.988045
 20
83.100607
 11
91.194928
 21
86.307492
  0
LINE
  8
1
 62
7
  6
CONTINUOUS
 10
87.988045
 20
83.418806
 11
91.194928
 21
86.625689
  0
LINE
  8
1
 62
7
  6
CONTINUOUS
 10
87.988045
 20
83.737003
 11
91.194928
 21
86.943886
  0
LINE
  8
1
 62
7
  6
CONTINUOUS
 10
87.988045
 20
84.055200
 11
91.194928
 21
87.262085
  0
LINE
  8
1
 62
7
  6
CONTINUOUS
 10
87.988045
 20
84.373400
 11
91.194928
 21
87.580284
  0
LINE
  8
1
 62
7
  6
CONTINUOUS
 10
87.988045
 20
84.691597
 11
91.194928
 21
87.898481
  0
LINE
  8
1
 62
7
  6
CONTINUOUS
 10
87.988045
 20
85.009794
 11
91.194928
 21
88.216678
  0
LINE
  8
1
 62
7
  6
CONTINUOUS
 10
92.547946
 20
89.569696
 11
92.742058
 21
89.763807
  0
LINE
  8
1
 62
7
  6
CONTINUOUS
 10
87.988045
 20
85.327993
 11
91.194928
 21
88.534877
  0
LINE
  8
1
 62
7
  6
CONTINUOUS
 10
92.229747
 20
89.569696
 11
92.625589
 21
89.965537
  0
LINE
  8
1
 62
7
  6
CONTINUOUS
 10
87.988045
 20
85.646192
 11
91.194928
 21
88.853075
  0
LINE
  8
1
 62
7
  6
CONTINUOUS
 10
91.911550
 20
89.569696
 11
92.509120
 21
90.167266
  0
LINE
  8
1
 62
7
  6
CONTINUOUS
 10
87.988045
 20
85.964389
 11
91.194928
 21
89.171273
  0
LINE
  8
1
 62
7
  6
CONTINUOUS
 10
91.593353
 20
89.569696
 11
92.392653
 21
90.368995
  0
LINE
  8
1
 62
7
  6
CONTINUOUS
 10
87.988045
 20
86.282588
 11
91.194928
 21
89.489471
  0
LINE
  8
1
 62
7
  6
CONTINUOUS
 10
91.275153
 20
89.569696
 11
92.276184
 21
90.570725
  0
LINE
  8
1
 62
7
  6
CONTINUOUS
 10
87.988045
 20
86.600785
 11
92.159715
 21
90.772455
  0
LINE
  8
1
 62
7
  6
CONTINUOUS
 10
87.988045
 20
86.918984
 11
92.043246
 21
90.974183
  0
LINE
  8
1
 62
7
  6
CONTINUOUS
 10
87.988045
 20
87.237181
 11
91.926777
 21
91.175913
  0
LINE
  8
1
 62
7
  6
CONTINUOUS
 10
87.988045
 20
87.555380
 11
91.810308
 21
91.377643
  0
LINE
  8
1
 62
7
  6
CONTINUOUS
 10
87.988045
 20
87.873578
 11
91.693839
 21
91.579373
  0
LINE
  8
1
 62
7
  6
CONTINUOUS
 10
87.988045
 20
88.191775
 11
91.577370
 21
91.781103
  0
LINE
  8
1
 62
7
  6
CONTINUOUS
 10
87.988045
 20
88.509974
 11
91.460901
 21
91.982831
  0
LINE
  8
1
 62
7
  6
CONTINUOUS
 10
87.988045
 20
88.828171
 11
91.344434
 21
92.184561
  0
LINE
  8
1
 62
7
  6
CONTINUOUS
 10
87.988045
 20
89.146370
 11
91.227965
 21
92.386291
  0
LINE
  8
1
 62
7
  6
CONTINUOUS
 10
87.988045
 20
89.464569
 11
91.111496
 21
92.588020
  0
LINE
  8
1
 62
7
  6
CONTINUOUS
 10
87.774975
 20
89.569696
 11
90.995027
 21
92.789749
  0
LINE
  8
1
 62
7
  6
CONTINUOUS
 10
87.456777
 20
89.569696
 11
90.878560
 21
92.991479
  0
LINE
  8
1
 62
7
  6
CONTINUOUS
 10
87.138580
 20
89.569696
 11
90.762091
 21
93.193208
  0
LINE
  8
1
 62
7
  6
CONTINUOUS
 10
86.820381
 20
89.569696
 11
90.645622
 21
93.394938
  0
LINE
  8
1
 62
7
  6
CONTINUOUS
 10
86.502183
 20
89.569696
 11
90.529153
 21
93.596666
  0
LINE
  8
1
 62
7
  6
CONTINUOUS
 10
86.526732
 20
89.912443
 11
90.412686
 21
93.798396
  0
LINE
  8
1
 62
7
  6
CONTINUOUS
 10
86.961398
 20
90.665308
 11
90.296217
 21
94.000126
  0
LINE
  8
1
 62
7
  6
CONTINUOUS
 10
87.396065
 20
91.418171
 11
90.179748
 21
94.201856
  0
LINE
  8
1
 62
7
  6
CONTINUOUS
 10
87.830731
 20
92.171038
 11
90.063279
 21
94.403586
  0
LINE
  8
1
 62
7
  6
CONTINUOUS
 10
88.265397
 20
92.923901
 11
89.946812
 21
94.605314
  0
LINE
  8
1
 62
7
  6
CONTINUOUS
 10
88.700064
 20
93.676766
 11
89.830343
 21
94.807045
  0
LINE
  8
1
 62
7
  6
CONTINUOUS
 10
89.134731
 20
94.429630
 11
89.713874
 21
95.008774
  0
LINE
  8
1
 62
7
  6
CONTINUOUS
 10
89.569397
 20
95.182495
 11
89.597405
 21
95.210504
  0
LINE
  8
1
 62
7
  6
CONTINUOUS
 10
112.506000
 20
260.924412
 11
96.391642
 21
260.924412
  0
LINE
  8
1
 62
7
  6
CONTINUOUS
 10
112.506000
 20
260.124411
 11
112.506000
 21
256.724413
  0
LINE
  8
1
 62
7
  6
CONTINUOUS
 10
97.506001
 20
135.531795
 11
127.506000
 21
135.531795
  0
LINE
  8
1
 62
7
  6
CONTINUOUS
 10
95.506001
 20
137.531795
 11
129.505999
 21
137.531795
  0
LINE
  8
1
 62
7
  6
CONTINUOUS
 10
94.506002
 20
180.531795
 11
130.418000
 21
180.531795
  0
LINE
  8
1
 62
7
  6
CONTINUOUS
 10
78.506009
 20
192.958792
 11
146.506002
 21
192.958792
  0
LINE
  8
1
 62
7
  6
CONTINUOUS
 10
128.218711
 20
201.810721
 11
128.233895
 21
201.825904
  0
LINE
  8
1
 62
7
  6
CONTINUOUS
 10
127.830814
 20
201.847087
 11
127.944454
 21
201.960727
  0
LINE
  8
1
 62
7
  6
CONTINUOUS
 10
127.437000
 20
201.877536
 11
127.724158
 21
202.164696
  0
LINE
  8
1
 62
7
  6
CONTINUOUS
 10
127.012735
 20
201.877536
 11
127.570376
 21
202.435177
  0
LINE
  8
1
 62
7
  6
CONTINUOUS
 10
126.588471
 20
201.877536
 11
127.445931
 21
202.734996
  0
LINE
  8
1
 62
7
  6
CONTINUOUS
 10
126.164206
 20
201.877536
 11
127.021666
 21
202.734996
  0
LINE
  8
1
 62
7
  6
CONTINUOUS
 10
125.739944
 20
201.877536
 11
126.597403
 21
202.734996
  0
LINE
  8
1
 62
7
  6
CONTINUOUS
 10
125.315679
 20
201.877536
 11
126.173139
 21
202.734996
  0
LINE
  8
1
 62
7
  6
CONTINUOUS
 10
124.891415
 20
201.877536
 11
125.748874
 21
202.734996
  0
LINE
  8
1
 62
7
  6
CONTINUOUS
 10
124.467150
 20
201.877536
 11
125.324610
 21
202.734996
  0
LINE
  8
1
 62
7
  6
CONTINUOUS
 10
124.042887
 20
201.877536
 11
124.900347
 21
202.734996
  0
LINE
  8
1
 62
7
  6
CONTINUOUS
 10
123.618623
 20
201.877536
 11
124.476083
 21
202.734996
  0
LINE
  8
1
 62
7
  6
CONTINUOUS
 10
123.194358
 20
201.877536
 11
124.051818
 21
202.734996
  0
LINE
  8
1
 62
7
  6
CONTINUOUS
 10
122.770094
 20
201.877536
 11
123.627554
 21
202.734996
  0
LINE
  8
1
 62
7
  6
CONTINUOUS
 10
122.345831
 20
201.877536
 11
123.203291
 21
202.734996
  0
LINE
  8
1
 62
7
  6
CONTINUOUS
 10
121.921567
 20
201.877536
 11
122.779026
 21
202.734996
  0
LINE
  8
1
 62
7
  6
CONTINUOUS
 10
121.497302
 20
201.877536
 11
122.354762
 21
202.734996
  0
LINE
  8
1
 62
7
  6
CONTINUOUS
 10
121.073038
 20
201.877536
 11
121.930497
 21
202.734996
  0
LINE
  8
1
 62
7
  6
CONTINUOUS
 10
120.648773
 20
201.877536
 11
121.506233
 21
202.734996
  0
LINE
  8
1
 62
7
  6
CONTINUOUS
 10
120.224510
 20
201.877536
 11
121.081970
 21
202.734996
  0
LINE
  8
1
 62
7
  6
CONTINUOUS
 10
119.800246
 20
201.877536
 11
120.657706
 21
202.734996
  0
LINE
  8
1
 62
7
  6
CONTINUOUS
 10
119.375982
 20
201.877536
 11
120.233441
 21
202.734996
  0
LINE
  8
1
 62
7
  6
CONTINUOUS
 10
118.951717
 20
201.877536
 11
119.809177
 21
202.734996
  0
LINE
  8
1
 62
7
  6
CONTINUOUS
 10
118.527454
 20
201.877536
 11
119.384914
 21
202.734996
  0
LINE
  8
1
 62
7
  6
CONTINUOUS
 10
118.103190
 20
201.877536
 11
118.960650
 21
202.734996
  0
LINE
  8
1
 62
7
  6
CONTINUOUS
 10
117.678925
 20
201.877536
 11
118.536385
 21
202.734996
  0
LINE
  8
1
 62
7
  6
CONTINUOUS
 10
117.254661
 20
201.877536
 11
118.112121
 21
202.734996
  0
LINE
  8
1
 62
7
  6
CONTINUOUS
 10
116.830398
 20
201.877536
 11
117.687858
 21
202.734996
  0
LINE
  8
1
 62
7
  6
CONTINUOUS
 10
116.406134
 20
201.877536
 11
117.263593
 21
202.734996
  0
LINE
  8
1
 62
7
  6
CONTINUOUS
 10
115.981869
 20
201.877536
 11
116.839329
 21
202.734996
  0
LINE
  8
1
 62
7
  6
CONTINUOUS
 10
115.557605
 20
201.877536
 11
116.415064
 21
202.734996
  0
LINE
  8
1
 62
7
  6
CONTINUOUS
 10
115.133342
 20
201.877536
 11
115.990802
 21
202.734996
  0
LINE
  8
1
 62
7
  6
CONTINUOUS
 10
114.709077
 20
201.877536
 11
115.566537
 21
202.734996
  0
LINE
  8
1
 62
7
  6
CONTINUOUS
 10
114.284813
 20
201.877536
 11
115.142273
 21
202.734996
  0
LINE
  8
1
 62
7
  6
CONTINUOUS
 10
113.860548
 20
201.877536
 11
114.718008
 21
202.734996
  0
LINE
  8
1
 62
7
  6
CONTINUOUS
 10
113.436286
 20
201.877536
 11
114.293745
 21
202.734996
  0
LINE
  8
1
 62
7
  6
CONTINUOUS
 10
113.012021
 20
201.877536
 11
113.869481
 21
202.734996
  0
LINE
  8
1
 62
7
  6
CONTINUOUS
 10
112.587757
 20
201.877536
 11
113.445216
 21
202.734996
  0
LINE
  8
1
 62
7
  6
CONTINUOUS
 10
112.163492
 20
201.877536
 11
113.020952
 21
202.734996
  0
LINE
  8
1
 62
7
  6
CONTINUOUS
 10
111.739229
 20
201.877536
 11
112.596689
 21
202.734996
  0
LINE
  8
1
 62
7
  6
CONTINUOUS
 10
111.314965
 20
201.877536
 11
112.172425
 21
202.734996
  0
LINE
  8
1
 62
7
  6
CONTINUOUS
 10
110.890700
 20
201.877536
 11
111.748160
 21
202.734996
  0
LINE
  8
1
 62
7
  6
CONTINUOUS
 10
110.466436
 20
201.877536
 11
111.323896
 21
202.734996
  0
LINE
  8
1
 62
7
  6
CONTINUOUS
 10
110.042173
 20
201.877536
 11
110.899633
 21
202.734996
  0
LINE
  8
1
 62
7
  6
CONTINUOUS
 10
109.617909
 20
201.877536
 11
110.475368
 21
202.734996
  0
LINE
  8
1
 62
7
  6
CONTINUOUS
 10
109.193644
 20
201.877536
 11
110.051104
 21
202.734996
  0
LINE
  8
1
 62
7
  6
CONTINUOUS
 10
108.769380
 20
201.877536
 11
109.626840
 21
202.734996
  0
LINE
  8
1
 62
7
  6
CONTINUOUS
 10
108.345115
 20
201.877536
 11
109.202575
 21
202.734996
  0
LINE
  8
1
 62
7
  6
CONTINUOUS
 10
107.920852
 20
201.877536
 11
108.778312
 21
202.734996
  0
LINE
  8
1
 62
7
  6
CONTINUOUS
 10
107.496588
 20
201.877536
 11
108.354048
 21
202.734996
  0
LINE
  8
1
 62
7
  6
CONTINUOUS
 10
107.072324
 20
201.877536
 11
107.929783
 21
202.734996
  0
LINE
  8
1
 62
7
  6
CONTINUOUS
 10
106.648059
 20
201.877536
 11
107.505519
 21
202.734996
  0
LINE
  8
1
 62
7
  6
CONTINUOUS
 10
106.223796
 20
201.877536
 11
107.081256
 21
202.734996
  0
LINE
  8
1
 62
7
  6
CONTINUOUS
 10
105.799532
 20
201.877536
 11
106.656992
 21
202.734996
  0
LINE
  8
1
 62
7
  6
CONTINUOUS
 10
105.375267
 20
201.877536
 11
106.232727
 21
202.734996
  0
LINE
  8
1
 62
7
  6
CONTINUOUS
 10
104.951003
 20
201.877536
 11
105.808463
 21
202.734996
  0
LINE
  8
1
 62
7
  6
CONTINUOUS
 10
104.526740
 20
201.877536
 11
105.384200
 21
202.734996
  0
LINE
  8
1
 62
7
  6
CONTINUOUS
 10
104.102476
 20
201.877536
 11
104.959935
 21
202.734996
  0
LINE
  8
1
 62
7
  6
CONTINUOUS
 10
103.678211
 20
201.877536
 11
104.535671
 21
202.734996
  0
LINE
  8
1
 62
7
  6
CONTINUOUS
 10
103.253947
 20
201.877536
 11
104.111406
 21
202.734996
  0
LINE
  8
1
 62
7
  6
CONTINUOUS
 10
102.829684
 20
201.877536
 11
103.687144
 21
202.734996
  0
LINE
  8
1
 62
7
  6
CONTINUOUS
 10
102.405419
 20
201.877536
 11
103.262879
 21
202.734996
  0
LINE
  8
1
 62
7
  6
CONTINUOUS
 10
101.981155
 20
201.877536
 11
102.838615
 21
202.734996
  0
LINE
  8
1
 62
7
  6
CONTINUOUS
 10
101.556890
 20
201.877536
 11
102.414350
 21
202.734996
  0
LINE
  8
1
 62
7
  6
CONTINUOUS
 10
101.132628
 20
201.877536
 11
101.990087
 21
202.734996
  0
LINE
  8
1
 62
7
  6
CONTINUOUS
 10
100.708363
 20
201.877536
 11
101.565823
 21
202.734996
  0
LINE
  8
1
 62
7
  6
CONTINUOUS
 10
100.284099
 20
201.877536
 11
101.141558
 21
202.734996
  0
LINE
  8
1
 62
7
  6
CONTINUOUS
 10
99.859834
 20
201.877536
 11
100.717294
 21
202.734996
  0
LINE
  8
1
 62
7
  6
CONTINUOUS
 10
99.435571
 20
201.877536
 11
100.293031
 21
202.734996
  0
LINE
  8
1
 62
7
  6
CONTINUOUS
 10
99.011307
 20
201.877536
 11
99.868767
 21
202.734996
  0
LINE
  8
1
 62
7
  6
CONTINUOUS
 10
98.587042
 20
201.877536
 11
99.444502
 21
202.734996
  0
LINE
  8
1
 62
7
  6
CONTINUOUS
 10
98.162778
 20
201.877536
 11
99.020238
 21
202.734996
  0
LINE
  8
1
 62
7
  6
CONTINUOUS
 10
97.738514
 20
201.877536
 11
98.595975
 21
202.734996
  0
LINE
  8
1
 62
7
  6
CONTINUOUS
 10
97.294414
 20
201.857700
 11
98.171710
 21
202.734996
  0
LINE
  8
1
 62
7
  6
CONTINUOUS
 10
96.826261
 20
201.813811
 11
96.868725
 21
201.856275
  0
LINE
  8
1
 62
7
  6
CONTINUOUS
 10
97.437896
 20
202.425447
 11
97.747446
 21
202.734996
  0
LINE
  8
1
 62
7
  6
CONTINUOUS
 10
97.506000
 20
202.734996
 11
127.506001
 21
202.734996
  0
LINE
  8
1
 62
7
  6
CONTINUOUS
 10
82.006001
 20
200.658794
 11
143.006005
 21
200.658794
  0
LINE
  8
1
 62
7
  6
CONTINUOUS
 10
97.506000
 20
201.877536
 11
127.574000
 21
201.877536
  0
LINE
  8
1
 62
7
  6
CONTINUOUS
 10
144.356001
 20
190.431793
 11
80.656014
 21
190.431793
  0
LINE
  8
1
 62
7
  6
CONTINUOUS
 10
131.505999
 20
181.531795
 11
131.505999
 21
190.431793
  0
LINE
  8
1
 62
7
  6
CONTINUOUS
 10
93.506002
 20
181.531795
 11
93.506002
 21
190.431793
  0
LINE
  8
1
 62
7
  6
CONTINUOUS
 10
130.006001
 20
256.724413
 11
130.006001
 21
260.124411
  0
LINE
  8
1
 62
7
  6
CONTINUOUS
 10
130.006001
 20
256.724413
 11
128.620359
 21
255.924412
  0
LINE
  8
1
 62
7
  6
CONTINUOUS
 10
128.620359
 20
255.924412
 11
96.391642
 21
255.924412
  0
LINE
  8
1
 62
7
  6
CONTINUOUS
 10
130.006001
 20
260.124411
 11
128.620359
 21
260.924412
  0
LINE
  8
1
 62
7
  6
CONTINUOUS
 10
112.506000
 20
260.924412
 11
128.620359
 21
260.924412
  0
ARC
  8
1
 62
7
  6
CONTINUOUS
 10
121.256002
 20
304.175943
 40
48.251530
 50
-100.447902
 51
-79.552098
  0
ARC
  8
1
 62
7
  6
CONTINUOUS
 10
121.256002
 20
212.672881
 40
48.251530
 50
79.552098
 51
100.447902
  0
LINE
  8
1
 62
7
  6
CONTINUOUS
 10
95.006000
 20
256.724413
 11
96.391642
 21
255.924412
  0
LINE
  8
1
 62
7
  6
CONTINUOUS
 10
95.006000
 20
260.124411
 11
96.391642
 21
260.924412
  0
ARC
  8
1
 62
7
  6
CONTINUOUS
 10
103.755999
 20
304.175943
 40
48.251530
 50
-100.447902
 51
-79.552098
  0
LINE
  8
1
 62
7
  6
CONTINUOUS
 10
95.006000
 20
260.124411
 11
95.006000
 21
256.724413
  0
ARC
  8
1
 62
7
  6
CONTINUOUS
 10
103.755999
 20
212.672881
 40
48.251530
 50
79.552098
 51
100.447902
  0
ARC
  8
1
 62
7
  6
CONTINUOUS
 10
135.332148
 20
151.531795
 40
9.615950
 50
127.292463
 51
-127.292463
  0
LINE
  8
1
 62
7
  6
CONTINUOUS
 10
129.505999
 20
159.181795
 11
173.506000
 21
159.181795
  0
LINE
  8
1
 62
7
  6
CONTINUOUS
 10
129.505999
 20
143.881795
 11
173.506000
 21
143.881795
  0
LINE
  8
1
 62
7
  6
CONTINUOUS
 10
168.962321
 20
145.031796
 11
173.506000
 21
145.031796
  0
LINE
  8
1
 62
7
  6
CONTINUOUS
 10
170.146743
 20
158.031795
 11
173.506000
 21
158.031795
  0
LINE
  8
1
 62
7
  6
CONTINUOUS
 10
169.303199
 20
159.181795
 11
169.564963
 21
158.991496
  0
LINE
  8
1
 62
7
  6
CONTINUOUS
 10
169.564963
 20
158.991496
 11
169.775373
 21
158.781246
  0
LINE
  8
1
 62
7
  6
CONTINUOUS
 10
169.775373
 20
158.781246
 11
169.939034
 21
158.552352
  0
LINE
  8
1
 62
7
  6
CONTINUOUS
 10
169.939034
 20
158.552352
 11
170.060549
 21
158.306122
  0
LINE
  8
1
 62
7
  6
CONTINUOUS
 10
170.060549
 20
158.306122
 11
170.144519
 21
158.043863
  0
LINE
  8
1
 62
7
  6
CONTINUOUS
 10
170.144519
 20
158.043863
 11
170.195549
 21
157.766884
  0
LINE
  8
1
 62
7
  6
CONTINUOUS
 10
170.195549
 20
157.766884
 11
170.218241
 21
157.476493
  0
LINE
  8
1
 62
7
  6
CONTINUOUS
 10
170.218241
 20
157.476493
 11
170.217199
 21
157.173997
  0
LINE
  8
1
 62
7
  6
CONTINUOUS
 10
170.217199
 20
157.173997
 11
170.163270
 21
156.851114
  0
LINE
  8
1
 62
7
  6
CONTINUOUS
 10
170.163270
 20
156.851114
 11
170.039574
 21
156.503048
  0
LINE
  8
1
 62
7
  6
CONTINUOUS
 10
170.039574
 20
156.503048
 11
169.869129
 21
156.136337
  0
LINE
  8
1
 62
7
  6
CONTINUOUS
 10
169.869129
 20
156.136337
 11
169.674950
 21
155.757523
  0
LINE
  8
1
 62
7
  6
CONTINUOUS
 10
169.674950
 20
155.757523
 11
169.480051
 21
155.373142
  0
LINE
  8
1
 62
7
  6
CONTINUOUS
 10
169.480051
 20
155.373142
 11
169.307450
 21
154.989735
  0
LINE
  8
1
 62
7
  6
CONTINUOUS
 10
169.307450
 20
154.989735
 11
169.180160
 21
154.613841
  0
LINE
  8
1
 62
7
  6
CONTINUOUS
 10
169.180160
 20
154.613841
 11
169.121199
 21
154.251997
  0
LINE
  8
1
 62
7
  6
CONTINUOUS
 10
169.121199
 20
154.251997
 11
169.144659
 21
153.908821
  0
LINE
  8
1
 62
7
  6
CONTINUOUS
 10
169.144659
 20
153.908821
 11
169.234660
 21
153.580061
  0
LINE
  8
1
 62
7
  6
CONTINUOUS
 10
169.234660
 20
153.580061
 11
169.369258
 21
153.258960
  0
LINE
  8
1
 62
7
  6
CONTINUOUS
 10
169.369258
 20
153.258960
 11
169.526512
 21
152.938758
  0
LINE
  8
1
 62
7
  6
CONTINUOUS
 10
169.526512
 20
152.938758
 11
169.684475
 21
152.612700
  0
LINE
  8
1
 62
7
  6
CONTINUOUS
 10
169.684475
 20
152.612700
 11
169.821207
 21
152.274025
  0
LINE
  8
1
 62
7
  6
CONTINUOUS
 10
169.821207
 20
152.274025
 11
169.914762
 21
151.915976
  0
LINE
  8
1
 62
7
  6
CONTINUOUS
 10
169.914762
 20
151.915976
 11
169.943199
 21
151.531795
  0
LINE
  8
1
 62
7
  6
CONTINUOUS
 10
169.943199
 20
151.531795
 11
169.896256
 21
151.120450
  0
LINE
  8
1
 62
7
  6
CONTINUOUS
 10
169.896256
 20
151.120450
 11
169.790434
 21
150.687937
  0
LINE
  8
1
 62
7
  6
CONTINUOUS
 10
169.790434
 20
150.687937
 11
169.643933
 21
150.238033
  0
LINE
  8
1
 62
7
  6
CONTINUOUS
 10
169.643933
 20
150.238033
 11
169.474949
 21
149.774522
  0
LINE
  8
1
 62
7
  6
CONTINUOUS
 10
169.474949
 20
149.774522
 11
169.301686
 21
149.301181
  0
LINE
  8
1
 62
7
  6
CONTINUOUS
 10
169.301686
 20
149.301181
 11
169.142340
 21
148.821793
  0
LINE
  8
1
 62
7
  6
CONTINUOUS
 10
169.142340
 20
148.821793
 11
169.015111
 21
148.340139
  0
LINE
  8
1
 62
7
  6
CONTINUOUS
 10
169.015111
 20
148.340139
 11
168.938199
 21
147.859997
  0
LINE
  8
1
 62
7
  6
CONTINUOUS
 10
168.938199
 20
147.859997
 11
168.898257
 21
147.378597
  0
LINE
  8
1
 62
7
  6
CONTINUOUS
 10
168.898257
 20
147.378597
 11
168.872233
 21
146.891149
  0
LINE
  8
1
 62
7
  6
CONTINUOUS
 10
168.872233
 20
146.891149
 11
168.863767
 21
146.398408
  0
LINE
  8
1
 62
7
  6
CONTINUOUS
 10
168.863767
 20
146.398408
 11
168.876498
 21
145.901133
  0
LINE
  8
1
 62
7
  6
CONTINUOUS
 10
168.876498
 20
145.901133
 11
168.914068
 21
145.400076
  0
LINE
  8
1
 62
7
  6
CONTINUOUS
 10
168.914068
 20
145.400076
 11
168.980114
 21
144.895999
  0
LINE
  8
1
 62
7
  6
CONTINUOUS
 10
168.980114
 20
144.895999
 11
169.078276
 21
144.389653
  0
LINE
  8
1
 62
7
  6
CONTINUOUS
 10
169.078276
 20
144.389653
 11
169.212197
 21
143.881795
  0
LINE
  8
1
 62
7
  6
CONTINUOUS
 10
127.740078
 20
201.855591
 11
127.506001
 21
202.089668
  0
LINE
  8
1
 62
7
  6
CONTINUOUS
 10
128.208232
 20
201.811702
 11
128.175605
 21
201.844329
  0
LINE
  8
1
 62
7
  6
CONTINUOUS
 10
127.562159
 20
202.457775
 11
127.506001
 21
202.513932
  0
ARC
  8
1
 62
7
  6
CONTINUOUS
 10
128.506001
 20
202.788171
 40
1.000000
 50
180.000000
 51
-95.355836
  0
LINE
  8
1
 62
7
  6
CONTINUOUS
 10
92.606009
 20
201.418162
 11
98.006004
 21
201.924412
  0
LINE
  8
1
 62
7
  6
CONTINUOUS
 10
97.506000
 20
201.877536
 11
97.506000
 21
255.924412
  0
LINE
  8
1
 62
7
  6
CONTINUOUS
 10
97.271923
 20
201.855591
 11
97.506000
 21
202.089668
  0
LINE
  8
1
 62
7
  6
CONTINUOUS
 10
96.803769
 20
201.811702
 11
96.836396
 21
201.844329
  0
LINE
  8
1
 62
7
  6
CONTINUOUS
 10
97.449842
 20
202.457775
 11
97.506000
 21
202.513932
  0
ARC
  8
1
 62
7
  6
CONTINUOUS
 10
96.506000
 20
202.788171
 40
1.000000
 50
-84.644164
 51
0.000000
  0
LINE
  8
1
 62
7
  6
CONTINUOUS
 10
129.505999
 20
179.531795
 11
129.505999
 21
159.181795
  0
LINE
  8
1
 62
7
  6
CONTINUOUS
 10
130.293868
 20
143.881795
 11
130.312723
 21
143.862940
  0
LINE
  8
1
 62
7
  6
CONTINUOUS
 10
129.869603
 20
143.881795
 11
130.004466
 21
143.746933
  0
LINE
  8
1
 62
7
  6
CONTINUOUS
 10
129.505999
 20
143.821135
 11
129.769213
 21
143.557922
  0
LINE
  8
1
 62
7
  6
CONTINUOUS
 10
129.505999
 20
143.396871
 11
129.599299
 21
143.303571
  0
LINE
  8
1
 62
7
  6
CONTINUOUS
 10
129.505999
 20
142.972608
 11
129.509792
 21
142.968814
  0
ARC
  8
1
 62
7
  6
CONTINUOUS
 10
130.505999
 20
142.881796
 40
1.000000
 50
90.000000
 51
180.000000
  0
LINE
  8
1
 62
7
  6
CONTINUOUS
 10
130.293868
 20
159.181795
 11
130.312723
 21
159.200650
  0
LINE
  8
1
 62
7
  6
CONTINUOUS
 10
129.869603
 20
159.181795
 11
130.004466
 21
159.316658
  0
LINE
  8
1
 62
7
  6
CONTINUOUS
 10
129.505999
 20
159.242456
 11
129.769213
 21
159.505669
  0
LINE
  8
1
 62
7
  6
CONTINUOUS
 10
129.505999
 20
159.666720
 11
129.599299
 21
159.760020
  0
LINE
  8
1
 62
7
  6
CONTINUOUS
 10
129.505999
 20
160.090983
 11
129.509792
 21
160.094777
  0
ARC
  8
1
 62
7
  6
CONTINUOUS
 10
130.505999
 20
160.181795
 40
1.000000
 50
180.000000
 51
-90.000000
  0
LINE
  8
1
 62
7
  6
CONTINUOUS
 10
129.505999
 20
143.881795
 11
129.505999
 21
137.531795
  0
ARC
  8
1
 62
7
  6
CONTINUOUS
 10
174.506000
 20
160.435369
 40
1.603573
 50
-128.580061
 51
-51.419939
  0
LINE
  8
1
 62
7
  6
CONTINUOUS
 10
175.506000
 20
143.881795
 11
187.506001
 21
143.881795
  0
LINE
  8
1
 62
7
  6
CONTINUOUS
 10
175.506000
 20
145.031796
 11
187.506001
 21
145.031796
  0
ARC
  8
1
 62
7
  6
CONTINUOUS
 10
174.506000
 20
142.628222
 40
1.603573
 50
51.419939
 51
128.580061
  0
ARC
  8
1
 62
7
  6
CONTINUOUS
 10
174.506000
 20
143.981792
 40
1.450002
 50
46.397305
 51
133.602695
  0
LINE
  8
2
 62
7
  6
CONTINUOUS
 10
175.505998
 20
145.031796
 11
175.505998
 21
158.031795
  0
LINE
  8
2
 62
7
  6
CONTINUOUS
 10
173.506000
 20
158.031795
 11
173.506000
 21
145.031796
  0
ARC
  8
1
 62
7
  6
CONTINUOUS
 10
174.506000
 20
159.081799
 40
1.450002
 50
-133.602695
 51
-46.397305
  0
LINE
  8
1
 62
7
  6
CONTINUOUS
 10
175.506000
 20
159.181795
 11
187.506001
 21
159.181795
  0
LINE
  8
1
 62
7
  6
CONTINUOUS
 10
175.506000
 20
158.031795
 11
187.506001
 21
158.031795
  0
LINE
  8
1
 62
7
  6
CONTINUOUS
 10
187.506001
 20
159.181795
 11
187.506001
 21
151.531795
  0
LINE
  8
1
 62
7
  6
CONTINUOUS
 10
187.506001
 20
143.881795
 11
187.506001
 21
151.531795
  0
LINE
  8
1
 62
7
  6
CONTINUOUS
 10
98.006000
 20
201.924412
 11
97.506000
 21
201.924412
  0
LINE
  8
1
 62
7
  6
CONTINUOUS
 10
127.506001
 20
201.924412
 11
127.506001
 21
255.924412
  0
LINE
  8
1
 62
7
  6
CONTINUOUS
 10
127.006001
 20
201.924412
 11
127.506001
 21
201.924412
  0
LINE
  8
1
 62
7
  6
CONTINUOUS
 10
132.406000
 20
201.418162
 11
127.006006
 21
201.924412
  0
LINE
  8
1
 62
7
  6
CONTINUOUS
 10
146.006000
 20
191.908784
 11
146.006000
 21
192.958792
  0
LINE
  8
1
 62
7
  6
CONTINUOUS
 10
140.506002
 20
200.658794
 11
132.406000
 21
201.418162
  0
LINE
  8
1
 62
7
  6
CONTINUOUS
 10
143.006005
 20
200.658794
 11
140.506002
 21
200.658794
  0
ARC
  8
1
 62
7
  6
CONTINUOUS
 10
143.006005
 20
197.158791
 40
3.500000
 50
0.000000
 51
90.000000
  0
LINE
  8
1
 62
7
  6
CONTINUOUS
 10
144.556007
 20
190.458791
 11
146.006000
 21
191.908784
  0
LINE
  8
1
 62
7
  6
CONTINUOUS
 10
84.506007
 20
200.658794
 11
92.606009
 21
201.418162
  0
LINE
  8
1
 62
7
  6
CONTINUOUS
 10
82.006001
 20
200.658794
 11
84.506007
 21
200.658794
  0
ARC
  8
1
 62
7
  6
CONTINUOUS
 10
82.006001
 20
197.158791
 40
3.500000
 50
90.000000
 51
180.000000
  0
LINE
  8
1
 62
7
  6
CONTINUOUS
 10
80.456003
 20
190.458791
 11
79.006002
 21
191.908784
  0
LINE
  8
1
 62
7
  6
CONTINUOUS
 10
95.506001
 20
179.531795
 11
95.506001
 21
137.531795
  0
ARC
  8
1
 62
7
  6
CONTINUOUS
 10
94.506002
 20
179.531795
 40
1.000000
 50
0.000000
 51
90.000000
  0
ARC
  8
1
 62
7
  6
CONTINUOUS
 10
94.506002
 20
181.531795
 40
1.000000
 50
180.000000
 51
-90.000000
  0
LINE
  8
1
 62
7
  6
CONTINUOUS
 10
127.506000
 20
135.531795
 11
129.505999
 21
137.531795
  0
LINE
  8
1
 62
7
  6
CONTINUOUS
 10
124.506000
 20
126.531795
 11
124.506000
 21
134.531795
  0
ARC
  8
1
 62
7
  6
CONTINUOUS
 10
125.506000
 20
134.531795
 40
1.000000
 50
90.000000
 51
180.000000
  0
ARC
  8
1
 62
7
  6
CONTINUOUS
 10
130.505999
 20
179.531795
 40
1.000000
 50
90.000000
 51
180.000000
  0
ARC
  8
1
 62
7
  6
CONTINUOUS
 10
130.505999
 20
181.531795
 40
1.000000
 50
-90.000000
 51
0.000000
  0
LINE
  8
1
 62
7
  6
CONTINUOUS
 10
121.818870
 20
125.531795
 11
122.060677
 21
125.773603
  0
LINE
  8
1
 62
7
  6
CONTINUOUS
 10
122.789193
 20
126.502119
 11
122.818869
 21
126.531795
  0
LINE
  8
1
 62
7
  6
CONTINUOUS
 10
121.394605
 20
125.531795
 11
122.394605
 21
126.531795
  0
LINE
  8
1
 62
7
  6
CONTINUOUS
 10
120.970341
 20
125.531795
 11
121.970341
 21
126.531795
  0
LINE
  8
1
 62
7
  6
CONTINUOUS
 10
120.546076
 20
125.531795
 11
121.546076
 21
126.531795
  0
LINE
  8
1
 62
7
  6
CONTINUOUS
 10
120.121813
 20
125.531795
 11
121.121813
 21
126.531795
  0
LINE
  8
1
 62
7
  6
CONTINUOUS
 10
119.697549
 20
125.531795
 11
120.697549
 21
126.531795
  0
LINE
  8
1
 62
7
  6
CONTINUOUS
 10
119.273284
 20
125.531795
 11
120.273284
 21
126.531795
  0
LINE
  8
1
 62
7
  6
CONTINUOUS
 10
118.849020
 20
125.531795
 11
119.849020
 21
126.531795
  0
LINE
  8
1
 62
7
  6
CONTINUOUS
 10
118.424757
 20
125.531795
 11
119.424757
 21
126.531795
  0
LINE
  8
1
 62
7
  6
CONTINUOUS
 10
118.000493
 20
125.531795
 11
119.000493
 21
126.531795
  0
LINE
  8
1
 62
7
  6
CONTINUOUS
 10
117.576228
 20
125.531795
 11
118.576228
 21
126.531795
  0
LINE
  8
1
 62
7
  6
CONTINUOUS
 10
117.151964
 20
125.531795
 11
118.151964
 21
126.531795
  0
LINE
  8
1
 62
7
  6
CONTINUOUS
 10
116.727701
 20
125.531795
 11
117.727701
 21
126.531795
  0
LINE
  8
1
 62
7
  6
CONTINUOUS
 10
116.303436
 20
125.531795
 11
117.303436
 21
126.531795
  0
LINE
  8
1
 62
7
  6
CONTINUOUS
 10
115.879172
 20
125.531795
 11
116.879172
 21
126.531795
  0
LINE
  8
1
 62
7
  6
CONTINUOUS
 10
115.454908
 20
125.531795
 11
116.454907
 21
126.531795
  0
LINE
  8
1
 62
7
  6
CONTINUOUS
 10
115.030643
 20
125.531795
 11
116.030643
 21
126.531795
  0
LINE
  8
1
 62
7
  6
CONTINUOUS
 10
114.606380
 20
125.531795
 11
115.606380
 21
126.531795
  0
LINE
  8
1
 62
7
  6
CONTINUOUS
 10
114.182116
 20
125.531795
 11
115.182116
 21
126.531795
  0
LINE
  8
1
 62
7
  6
CONTINUOUS
 10
113.757851
 20
125.531795
 11
114.757851
 21
126.531795
  0
LINE
  8
1
 62
7
  6
CONTINUOUS
 10
113.333587
 20
125.531795
 11
114.333587
 21
126.531795
  0
LINE
  8
1
 62
7
  6
CONTINUOUS
 10
112.909324
 20
125.531795
 11
113.909324
 21
126.531795
  0
LINE
  8
1
 62
7
  6
CONTINUOUS
 10
112.485060
 20
125.531795
 11
113.485059
 21
126.531795
  0
LINE
  8
1
 62
7
  6
CONTINUOUS
 10
112.060795
 20
125.531795
 11
113.060795
 21
126.531795
  0
LINE
  8
1
 62
7
  6
CONTINUOUS
 10
111.636531
 20
125.531795
 11
112.636531
 21
126.531795
  0
LINE
  8
1
 62
7
  6
CONTINUOUS
 10
111.212268
 20
125.531795
 11
112.212268
 21
126.531795
  0
LINE
  8
1
 62
7
  6
CONTINUOUS
 10
110.788003
 20
125.531795
 11
111.788003
 21
126.531795
  0
LINE
  8
1
 62
7
  6
CONTINUOUS
 10
110.363739
 20
125.531795
 11
111.363739
 21
126.531795
  0
LINE
  8
1
 62
7
  6
CONTINUOUS
 10
109.939474
 20
125.531795
 11
110.939474
 21
126.531795
  0
LINE
  8
1
 62
7
  6
CONTINUOUS
 10
109.515212
 20
125.531795
 11
110.515212
 21
126.531795
  0
LINE
  8
1
 62
7
  6
CONTINUOUS
 10
109.090947
 20
125.531795
 11
110.090947
 21
126.531795
  0
LINE
  8
1
 62
7
  6
CONTINUOUS
 10
108.666683
 20
125.531795
 11
109.666683
 21
126.531795
  0
LINE
  8
1
 62
7
  6
CONTINUOUS
 10
108.242418
 20
125.531795
 11
109.242418
 21
126.531795
  0
LINE
  8
1
 62
7
  6
CONTINUOUS
 10
107.818155
 20
125.531795
 11
108.818155
 21
126.531795
  0
LINE
  8
1
 62
7
  6
CONTINUOUS
 10
107.393891
 20
125.531795
 11
108.393891
 21
126.531795
  0
LINE
  8
1
 62
7
  6
CONTINUOUS
 10
106.969626
 20
125.531795
 11
107.969626
 21
126.531795
  0
LINE
  8
1
 62
7
  6
CONTINUOUS
 10
106.545362
 20
125.531795
 11
107.545362
 21
126.531795
  0
LINE
  8
1
 62
7
  6
CONTINUOUS
 10
106.121099
 20
125.531795
 11
107.121099
 21
126.531795
  0
LINE
  8
1
 62
7
  6
CONTINUOUS
 10
105.696835
 20
125.531795
 11
106.696835
 21
126.531795
  0
LINE
  8
1
 62
7
  6
CONTINUOUS
 10
105.272570
 20
125.531795
 11
106.272570
 21
126.531795
  0
LINE
  8
1
 62
7
  6
CONTINUOUS
 10
104.848306
 20
125.531795
 11
105.848306
 21
126.531795
  0
LINE
  8
1
 62
7
  6
CONTINUOUS
 10
104.424043
 20
125.531795
 11
105.424043
 21
126.531795
  0
LINE
  8
1
 62
7
  6
CONTINUOUS
 10
103.999778
 20
125.531795
 11
104.999778
 21
126.531795
  0
LINE
  8
1
 62
7
  6
CONTINUOUS
 10
103.575514
 20
125.531795
 11
104.575514
 21
126.531795
  0
LINE
  8
1
 62
7
  6
CONTINUOUS
 10
103.151250
 20
125.531795
 11
104.151250
 21
126.531795
  0
LINE
  8
1
 62
7
  6
CONTINUOUS
 10
102.954722
 20
125.759532
 11
103.726985
 21
126.531795
  0
LINE
  8
1
 62
7
  6
CONTINUOUS
 10
102.830427
 20
126.059502
 11
103.302722
 21
126.531795
  0
LINE
  8
1
 62
7
  6
CONTINUOUS
 10
102.634974
 20
126.288312
 11
102.878458
 21
126.531795
  0
LINE
  8
1
 62
7
  6
CONTINUOUS
 10
102.373812
 20
126.451414
 11
102.454193
 21
126.531795
  0
LINE
  8
1
 62
7
  6
CONTINUOUS
 10
102.028787
 20
126.530653
 11
102.029929
 21
126.531795
  0
LINE
  8
1
 62
7
  6
CONTINUOUS
 10
102.981000
 20
125.531795
 11
122.031001
 21
125.531795
  0
LINE
  8
1
 62
7
  6
CONTINUOUS
 10
100.506001
 20
126.531795
 11
124.506000
 21
126.531795
  0
LINE
  8
1
 62
7
  6
CONTINUOUS
 10
106.006001
 20
78.531795
 11
106.006001
 21
80.842903
  0
LINE
  8
1
 62
7
  6
CONTINUOUS
 10
119.006000
 20
78.531795
 11
119.006000
 21
80.240584
  0
LINE
  8
1
 62
7
  6
CONTINUOUS
 10
104.856001
 20
80.437595
 11
105.126788
 21
80.576878
  0
LINE
  8
1
 62
7
  6
CONTINUOUS
 10
105.126788
 20
80.576878
 11
105.393724
 21
80.686973
  0
LINE
  8
1
 62
7
  6
CONTINUOUS
 10
105.393724
 20
80.686973
 11
105.657339
 21
80.770473
  0
LINE
  8
1
 62
7
  6
CONTINUOUS
 10
105.657339
 20
80.770473
 11
105.918165
 21
80.829966
  0
LINE
  8
1
 62
7
  6
CONTINUOUS
 10
105.918165
 20
80.829966
 11
106.176732
 21
80.868046
  0
LINE
  8
1
 62
7
  6
CONTINUOUS
 10
106.176732
 20
80.868046
 11
106.433574
 21
80.887300
  0
LINE
  8
1
 62
7
  6
CONTINUOUS
 10
106.433574
 20
80.887300
 11
106.689220
 21
80.890320
  0
LINE
  8
1
 62
7
  6
CONTINUOUS
 10
106.689220
 20
80.890320
 11
106.944200
 21
80.879698
  0
LINE
  8
1
 62
7
  6
CONTINUOUS
 10
106.944200
 20
80.879698
 11
107.195151
 21
80.839024
  0
LINE
  8
1
 62
7
  6
CONTINUOUS
 10
107.195151
 20
80.839024
 11
107.440127
 21
80.758803
  0
LINE
  8
1
 62
7
  6
CONTINUOUS
 10
107.440127
 20
80.758803
 11
107.681783
 21
80.651984
  0
LINE
  8
1
 62
7
  6
CONTINUOUS
 10
107.681783
 20
80.651984
 11
107.922774
 21
80.531523
  0
LINE
  8
1
 62
7
  6
CONTINUOUS
 10
107.922774
 20
80.531523
 11
108.165756
 21
80.410371
  0
LINE
  8
1
 62
7
  6
CONTINUOUS
 10
108.165756
 20
80.410371
 11
108.413383
 21
80.301481
  0
LINE
  8
1
 62
7
  6
CONTINUOUS
 10
108.413383
 20
80.301481
 11
108.668313
 21
80.217805
  0
LINE
  8
1
 62
7
  6
CONTINUOUS
 10
108.668313
 20
80.217805
 11
108.933199
 21
80.172298
  0
LINE
  8
1
 62
7
  6
CONTINUOUS
 10
108.933199
 20
80.172298
 11
109.209436
 21
80.172384
  0
LINE
  8
1
 62
7
  6
CONTINUOUS
 10
109.209436
 20
80.172384
 11
109.495091
 21
80.208912
  0
LINE
  8
1
 62
7
  6
CONTINUOUS
 10
109.495091
 20
80.208912
 11
109.787830
 21
80.269963
  0
LINE
  8
1
 62
7
  6
CONTINUOUS
 10
109.787830
 20
80.269963
 11
110.085324
 21
80.343622
  0
LINE
  8
1
 62
7
  6
CONTINUOUS
 10
110.085324
 20
80.343622
 11
110.385240
 21
80.417972
  0
LINE
  8
1
 62
7
  6
CONTINUOUS
 10
110.385240
 20
80.417972
 11
110.685247
 21
80.481096
  0
LINE
  8
1
 62
7
  6
CONTINUOUS
 10
110.685247
 20
80.481096
 11
110.983010
 21
80.521077
  0
LINE
  8
1
 62
7
  6
CONTINUOUS
 10
110.983010
 20
80.521077
 11
111.276200
 21
80.525998
  0
LINE
  8
1
 62
7
  6
CONTINUOUS
 10
111.276200
 20
80.525998
 11
111.562959
 21
80.484590
  0
LINE
  8
1
 62
7
  6
CONTINUOUS
 10
111.562959
 20
80.484590
 11
111.844715
 21
80.403374
  0
LINE
  8
1
 62
7
  6
CONTINUOUS
 10
111.844715
 20
80.403374
 11
112.124056
 21
80.297114
  0
LINE
  8
1
 62
7
  6
CONTINUOUS
 10
112.124056
 20
80.297114
 11
112.403574
 21
80.180579
  0
LINE
  8
1
 62
7
  6
CONTINUOUS
 10
112.403574
 20
80.180579
 11
112.685857
 21
80.068534
  0
LINE
  8
1
 62
7
  6
CONTINUOUS
 10
112.685857
 20
80.068534
 11
112.973495
 21
79.975744
  0
LINE
  8
1
 62
7
  6
CONTINUOUS
 10
112.973495
 20
79.975744
 11
113.269081
 21
79.916977
  0
LINE
  8
1
 62
7
  6
CONTINUOUS
 10
113.269081
 20
79.916977
 11
113.575199
 21
79.906998
  0
LINE
  8
1
 62
7
  6
CONTINUOUS
 10
113.575199
 20
79.906998
 11
113.885166
 21
79.963205
  0
LINE
  8
1
 62
7
  6
CONTINUOUS
 10
113.885166
 20
79.963205
 11
114.193649
 21
80.078995
  0
LINE
  8
1
 62
7
  6
CONTINUOUS
 10
114.193649
 20
80.078995
 11
114.505270
 21
80.233123
  0
LINE
  8
1
 62
7
  6
CONTINUOUS
 10
114.505270
 20
80.233123
 11
114.824650
 21
80.404347
  0
LINE
  8
1
 62
7
  6
CONTINUOUS
 10
114.824650
 20
80.404347
 11
115.156411
 21
80.571430
  0
LINE
  8
1
 62
7
  6
CONTINUOUS
 10
115.156411
 20
80.571430
 11
115.505174
 21
80.713125
  0
LINE
  8
1
 62
7
  6
CONTINUOUS
 10
115.505174
 20
80.713125
 11
115.875562
 21
80.808196
  0
LINE
  8
1
 62
7
  6
CONTINUOUS
 10
115.875562
 20
80.808196
 11
116.272199
 21
80.835397
  0
LINE
  8
1
 62
7
  6
CONTINUOUS
 10
116.272199
 20
80.835397
 11
116.691693
 21
80.810309
  0
LINE
  8
1
 62
7
  6
CONTINUOUS
 10
116.691693
 20
80.810309
 11
117.128189
 21
80.759834
  0
LINE
  8
1
 62
7
  6
CONTINUOUS
 10
117.128189
 20
80.759834
 11
117.582613
 21
80.679727
  0
LINE
  8
1
 62
7
  6
CONTINUOUS
 10
117.582613
 20
80.679727
 11
118.055890
 21
80.565738
  0
LINE
  8
1
 62
7
  6
CONTINUOUS
 10
118.055890
 20
80.565738
 11
118.548941
 21
80.413619
  0
LINE
  8
1
 62
7
  6
CONTINUOUS
 10
118.548941
 20
80.413619
 11
119.062694
 21
80.219121
  0
LINE
  8
1
 62
7
  6
CONTINUOUS
 10
119.062694
 20
80.219121
 11
119.598073
 21
79.977997
  0
LINE
  8
1
 62
7
  6
CONTINUOUS
 10
119.598073
 20
79.977997
 11
120.156000
 21
79.685998
  0
LINE
  8
1
 62
7
  6
CONTINUOUS
 10
122.031001
 20
125.743927
 11
122.060677
 21
125.773603
  0
LINE
  8
1
 62
7
  6
CONTINUOUS
 10
122.789193
 20
126.502119
 11
122.818869
 21
126.531795
  0
LINE
  8
1
 62
7
  6
CONTINUOUS
 10
122.031001
 20
126.168191
 11
122.394605
 21
126.531795
  0
LINE
  8
1
 62
7
  6
CONTINUOUS
 10
122.031001
 20
125.531795
 11
122.031001
 21
84.779391
  0
LINE
  8
1
 62
7
  6
CONTINUOUS
 10
122.031001
 20
126.531795
 11
123.031001
 21
126.531795
  0
ARC
  8
1
 62
7
  6
CONTINUOUS
 10
123.031001
 20
125.531795
 40
1.000000
 50
90.000000
 51
180.000000
  0
LINE
  8
1
 62
7
  6
CONTINUOUS
 10
102.962145
 20
125.725072
 11
102.981000
 21
125.743927
  0
LINE
  8
1
 62
7
  6
CONTINUOUS
 10
102.846137
 20
126.033329
 11
102.981000
 21
126.168191
  0
LINE
  8
1
 62
7
  6
CONTINUOUS
 10
102.657126
 20
126.268582
 11
102.920340
 21
126.531795
  0
LINE
  8
1
 62
7
  6
CONTINUOUS
 10
102.402775
 20
126.438495
 11
102.496075
 21
126.531795
  0
LINE
  8
1
 62
7
  6
CONTINUOUS
 10
102.068018
 20
126.528003
 11
102.071812
 21
126.531795
  0
LINE
  8
1
 62
7
  6
CONTINUOUS
 10
102.981000
 20
125.531795
 11
102.981000
 21
84.779391
  0
LINE
  8
1
 62
7
  6
CONTINUOUS
 10
102.981000
 20
126.531795
 11
101.981000
 21
126.531795
  0
ARC
  8
1
 62
7
  6
CONTINUOUS
 10
101.981000
 20
125.531795
 40
1.000000
 50
0.000000
 51
90.000000
  0
ARC
  8
1
 62
7
  6
CONTINUOUS
 10
103.602427
 20
77.531795
 40
1.603573
 50
-38.580061
 51
38.580061
  0
ARC
  8
1
 62
7
  6
CONTINUOUS
 10
104.955997
 20
77.531795
 40
1.450002
 50
-43.602695
 51
43.602695
  0
LINE
  8
1
 62
7
  6
CONTINUOUS
 10
104.856001
 20
78.531795
 11
104.856001
 21
81.531795
  0
LINE
  8
1
 62
7
  6
CONTINUOUS
 10
104.856001
 20
81.531795
 11
102.981000
 21
84.779391
  0
LINE
  8
1
 62
7
  6
CONTINUOUS
 10
104.856001
 20
76.531795
 11
104.856001
 21
66.531794
  0
LINE
  8
1
 62
7
  6
CONTINUOUS
 10
106.006001
 20
76.531795
 11
106.006001
 21
66.531794
  0
LINE
  8
2
 62
7
  6
CONTINUOUS
 10
106.006001
 20
76.531797
 11
119.006000
 21
76.531797
  0
LINE
  8
2
 62
7
  6
CONTINUOUS
 10
119.006000
 20
78.531795
 11
106.006001
 21
78.531795
  0
ARC
  8
1
 62
7
  6
CONTINUOUS
 10
121.409574
 20
77.531795
 40
1.603573
 50
141.419939
 51
-141.419939
  0
ARC
  8
1
 62
7
  6
CONTINUOUS
 10
120.056004
 20
77.531795
 40
1.450002
 50
136.397305
 51
-136.397305
  0
LINE
  8
1
 62
7
  6
CONTINUOUS
 10
120.156000
 20
78.531795
 11
120.156000
 21
81.531795
  0
LINE
  8
1
 62
7
  6
CONTINUOUS
 10
120.156000
 20
81.531795
 11
122.031001
 21
84.779391
  0
LINE
  8
1
 62
7
  6
CONTINUOUS
 10
120.156000
 20
76.531795
 11
120.156000
 21
66.531794
  0
LINE
  8
1
 62
7
  6
CONTINUOUS
 10
119.006000
 20
76.531795
 11
119.006000
 21
66.531794
  0
LINE
  8
1
 62
7
  6
CONTINUOUS
 10
97.506001
 20
135.531795
 11
95.506001
 21
137.531795
  0
LINE
  8
1
 62
7
  6
CONTINUOUS
 10
100.506001
 20
126.531795
 11
100.506001
 21
134.531795
  0
ARC
  8
1
 62
7
  6
CONTINUOUS
 10
99.506001
 20
134.531795
 40
1.000000
 50
0.000000
 51
90.000000
  0
LINE
  8
1
 62
7
  6
CONTINUOUS
 10
120.156000
 20
66.531794
 11
104.856001
 21
66.531794
  0
LINE
  8
2
 62
7
  6
CONTINUOUS
 10
78.506009
 20
280.782553
 11
80.437860
 21
281.300192
  0
LINE
  8
2
 62
7
  6
CONTINUOUS
 10
78.506009
 20
280.782553
 11
80.437860
 21
280.264915
  0
LINE
  8
2
 62
7
  6
CONTINUOUS
 10
146.506002
 20
280.782553
 11
144.574150
 21
280.264915
  0
LINE
  8
2
 62
7
  6
CONTINUOUS
 10
146.506002
 20
280.782553
 11
144.574150
 21
281.300192
  0
LINE
  8
2
 62
7
  6
CONTINUOUS
 10
78.506009
 20
280.782553
 11
146.506002
 21
280.782553
  0
TEXT
  8
2
 62
7
  6
CONTINUOUS
 10
66.500544
 20
157.728103
 40
4.000000
 41
0.500000
  1
194
  7
KANJI
 50
90.000000
 51
0.000000
  0
TEXT
  8
2
 62
7
  6
CONTINUOUS
 10
66.500544
 20
163.728103
 40
4.000000
 41
1.000000
  1
±3
  7
KANJI
 50
90.000000
 51
0.000000
  0
LINE
  8
2
 62
7
  6
CONTINUOUS
 10
66.500544
 20
260.924412
 11
67.018182
 21
258.992560
  0
LINE
  8
2
 62
7
  6
CONTINUOUS
 10
66.500544
 20
260.924412
 11
65.982906
 21
258.992560
  0
LINE
  8
2
 62
7
  6
CONTINUOUS
 10
66.500544
 20
66.531794
 11
65.982906
 21
68.463646
  0
LINE
  8
2
 62
7
  6
CONTINUOUS
 10
66.500544
 20
66.531794
 11
67.018182
 21
68.463646
  0
LINE
  8
2
 62
7
  6
CONTINUOUS
 10
65.500544
 20
260.924412
 11
112.006000
 21
260.924412
  0
LINE
  8
2
 62
7
  6
CONTINUOUS
 10
65.500544
 20
66.531794
 11
112.006000
 21
66.531794
  0
LINE
  8
2
 62
7
  6
CONTINUOUS
 10
66.500544
 20
260.924412
 11
66.500544
 21
66.531794
  0
LINE
  8
2
 62
7
  6
CONTINUOUS
 10
200.763420
 20
158.031795
 11
201.281058
 21
156.099943
  0
LINE
  8
2
 62
7
  6
CONTINUOUS
 10
200.763420
 20
158.031795
 11
200.245782
 21
156.099943
  0
LINE
  8
2
 62
7
  6
CONTINUOUS
 10
200.763420
 20
145.031796
 11
200.245782
 21
146.963647
  0
LINE
  8
2
 62
7
  6
CONTINUOUS
 10
200.763420
 20
145.031796
 11
201.281058
 21
146.963647
  0
LINE
  8
2
 62
7
  6
CONTINUOUS
 10
201.763420
 20
158.031795
 11
188.006001
 21
158.031795
  0
LINE
  8
2
 62
7
  6
CONTINUOUS
 10
201.763420
 20
145.031796
 11
188.006001
 21
145.031796
  0
LINE
  8
2
 62
7
  6
CONTINUOUS
 10
175.505998
 20
133.473998
 11
177.437850
 21
133.991636
  0
LINE
  8
2
 62
7
  6
CONTINUOUS
 10
175.505998
 20
133.473998
 11
177.437850
 21
132.956360
  0
LINE
  8
2
 62
7
  6
CONTINUOUS
 10
187.506001
 20
133.473998
 11
185.574149
 21
132.956360
  0
LINE
  8
2
 62
7
  6
CONTINUOUS
 10
187.506001
 20
133.473998
 11
185.574149
 21
133.991636
  0
LINE
  8
2
 62
7
  6
CONTINUOUS
 10
175.505998
 20
131.973998
 11
175.505998
 21
145.031797
  0
LINE
  8
2
 62
7
  6
CONTINUOUS
 10
175.505998
 20
133.473998
 11
187.506001
 21
133.473998
  0
LINE
  8
2
 62
7
  6
CONTINUOUS
 10
112.506000
 20
122.213997
 11
114.437852
 21
122.731635
  0
LINE
  8
2
 62
7
  6
CONTINUOUS
 10
112.506000
 20
122.213997
 11
114.437852
 21
121.696359
  0
LINE
  8
2
 62
7
  6
CONTINUOUS
 10
187.506001
 20
122.213997
 11
185.574149
 21
121.696359
  0
LINE
  8
2
 62
7
  6
CONTINUOUS
 10
187.506001
 20
122.213997
 11
185.574149
 21
122.731635
  0
LINE
  8
2
 62
7
  6
CONTINUOUS
 10
187.506001
 20
120.713997
 11
187.506001
 21
151.531795
  0
LINE
  8
2
 62
7
  6
CONTINUOUS
 10
112.506000
 20
122.213997
 11
187.506001
 21
122.213997
  0
LINE
  8
2
 62
7
  6
CONTINUOUS
 10
165.632200
 20
66.531794
 11
165.114562
 21
68.463646
  0
LINE
  8
2
 62
7
  6
CONTINUOUS
 10
165.632200
 20
66.531794
 11
166.149838
 21
68.463646
  0
LINE
  8
2
 62
7
  6
CONTINUOUS
 10
165.632200
 20
151.531795
 11
166.149838
 21
149.599944
  0
LINE
  8
2
 62
7
  6
CONTINUOUS
 10
165.632200
 20
151.531795
 11
165.114562
 21
149.599944
  0
LINE
  8
2
 62
7
  6
CONTINUOUS
 10
167.132200
 20
66.531794
 11
112.506000
 21
66.531794
  0
LINE
  8
2
 62
7
  6
CONTINUOUS
 10
165.632200
 20
66.531794
 11
165.632200
 21
151.531795
  0
LINE
  8
2
 62
7
  6
CONTINUOUS
 10
129.252199
 20
66.531794
 11
128.734561
 21
68.463646
  0
LINE
  8
2
 62
7
  6
CONTINUOUS
 10
129.252199
 20
66.531794
 11
129.769837
 21
68.463646
  0
LINE
  8
2
 62
7
  6
CONTINUOUS
 10
129.252199
 20
76.531797
 11
129.769837
 21
74.599945
  0
LINE
  8
2
 62
7
  6
CONTINUOUS
 10
129.252199
 20
76.531797
 11
128.734561
 21
74.599945
  0
LINE
  8
2
 62
7
  6
CONTINUOUS
 10
130.752199
 20
76.531797
 11
119.005999
 21
76.531797
  0
LINE
  8
2
 62
7
  6
CONTINUOUS
 10
129.252199
 20
66.531794
 11
129.252199
 21
76.531797
  0
LINE
  8
2
 62
7
  6
CONTINUOUS
 10
106.006001
 20
53.098442
 11
107.937852
 21
53.616080
  0
LINE
  8
2
 62
7
  6
CONTINUOUS
 10
106.006001
 20
53.098442
 11
107.937852
 21
52.580804
  0
LINE
  8
2
 62
7
  6
CONTINUOUS
 10
119.006000
 20
53.098442
 11
117.074148
 21
52.580804
  0
LINE
  8
2
 62
7
  6
CONTINUOUS
 10
119.006000
 20
53.098442
 11
117.074148
 21
53.616080
  0
LINE
  8
2
 62
7
  6
CONTINUOUS
 10
106.006001
 20
52.098442
 11
106.006001
 21
66.031794
  0
LINE
  8
2
 62
7
  6
CONTINUOUS
 10
119.006000
 20
52.098442
 11
119.006000
 21
66.031794
  0
LINE
  8
1
 62
7
  6
CONTINUOUS
 10
79.006002
 20
191.908784
 11
79.006002
 21
192.958792
  0
LINE
  8
2
 62
7
  6
CONTINUOUS
 10
78.506009
 20
281.782553
 11
78.506009
 21
197.166192
  0
LINE
  8
1
 62
7
  6
CONTINUOUS
 10
78.506009
 20
192.958792
 11
78.506009
 21
197.158791
  0
LINE
  8
2
 62
7
  6
CONTINUOUS
 10
146.506002
 20
281.782553
 11
146.506002
 21
196.383841
  0
LINE
  8
1
 62
7
  6
CONTINUOUS
 10
146.506002
 20
192.940964
 11
146.506002
 21
197.163472
  0
TEXT
  8
2
 62
7
  6
CONTINUOUS
 10
120.494550
 20
53.489442
 40
4.000000
 41
1.000000
  1
φ12.8
  7
KANJI
 50
0.000000
 51
0.000000
  0
TEXT
  8
2
 62
7
  6
CONTINUOUS
 10
132.494550
 20
55.889442
 40
2.000000
 41
0.500000
  1
+0.2
  7
KANJI
 50
0.000000
 51
0.000000
  0
TEXT
  8
2
 62
7
  6
CONTINUOUS
 10
132.494550
 20
53.489442
 40
2.000000
 41
0.500000
  1
 0
  7
KANJI
 50
0.000000
 51
0.000000
  0
LINE
  8
2
 62
7
  6
CONTINUOUS
 10
106.006001
 20
53.098442
 11
137.279818
 21
53.098442
  0
TEXT
  8
2
 62
7
  6
CONTINUOUS
 10
129.267199
 20
69.531796
 40
4.000000
 41
0.500000
  1
10
  7
KANJI
 50
90.000000
 51
0.000000
  0
TEXT
  8
2
 62
7
  6
CONTINUOUS
 10
165.596400
 20
104.082595
 40
4.000000
 41
0.500000
  1
85
  7
KANJI
 50
90.000000
 51
0.000000
  0
TEXT
  8
2
 62
7
  6
CONTINUOUS
 10
165.596400
 20
108.082595
 40
4.000000
 41
1.000000
  1
±2
  7
KANJI
 50
90.000000
 51
0.000000
  0
TEXT
  8
2
 62
7
  6
CONTINUOUS
 10
144.980600
 20
122.249797
 40
4.000000
 41
0.500000
  1
75
  7
KANJI
 50
0.000000
 51
0.000000
  0
TEXT
  8
2
 62
7
  6
CONTINUOUS
 10
148.980600
 20
122.249797
 40
4.000000
 41
1.000000
  1
±2
  7
KANJI
 50
0.000000
 51
0.000000
  0
TEXT
  8
2
 62
7
  6
CONTINUOUS
 10
179.658200
 20
133.408298
 40
4.000000
 41
0.500000
  1
12
  7
KANJI
 50
0.000000
 51
0.000000
  0
TEXT
  8
2
 62
7
  6
CONTINUOUS
 10
200.575420
 20
159.094145
 40
4.000000
 41
1.000000
  1
φ12.8
  7
KANJI
 50
90.000000
 51
0.000000
  0
TEXT
  8
2
 62
7
  6
CONTINUOUS
 10
198.175420
 20
171.094145
 40
2.000000
 41
0.500000
  1
+0.2
  7
KANJI
 50
90.000000
 51
0.000000
  0
TEXT
  8
2
 62
7
  6
CONTINUOUS
 10
200.575420
 20
171.094145
 40
2.000000
 41
0.500000
  1
 0
  7
KANJI
 50
90.000000
 51
0.000000
  0
LINE
  8
2
 62
7
  6
CONTINUOUS
 10
200.763420
 20
175.094733
 11
200.763420
 21
145.031796
  0
TEXT
  8
2
 62
7
  6
CONTINUOUS
 10
108.556705
 20
280.884053
 40
4.000000
 41
1.000000
  1
φ68
  7
KANJI
 50
0.000000
 51
0.000000
  0
TEXT
  8
2
 62
7
  6
CONTINUOUS
 10
38.468387
 20
20.326810
 40
12.000000
 41
0.500000
  1
1:2  WPR-0704D,1004D,2004D
  7
KANJI
 50
0.000000
 51
0.000000
  0
ENDSEC
  0
EOF
